Oops, an error
Loading. Please wait.

Guitarra Mía chords

155 views 1 this week
no commentswrite comment
1 2 3 4 5
2 more votes to show rating
add to favorites
×
Save as Personal and add changes to this tab that will be seen only by you. Learn more ›
×
You can save this tab as Personal to edit and correct it or add notes. All changes will be seen only by you. Learn more »
launch autoscroll
font size
0
reset
transpose
0
reset
simplify chords
display chords
guitar tuner
edit
Autoscroll
slow
fast
+/-
esc
set tempo
stop
Strumming
There is no strumming pattern for this song yet. and get +5 IQ
Saludos a todos desde Colombia
Aqui les va  una de las mas bellas canciones de Polo aqui se las entrego 100% exacta
Si tienen alguna duda o un comentario escribanme a:
Eliecer1306@
eliecerrodriguez@

Intro

Guitarra 1

e|-----------------------------------------|----------------------------------------------2
B|-----------------------------------------|---------------------------------------------2-
G|---------------------------------6-4-7-6-|-------------------------------------------2---
D|-7h6-------7h6-------7h6-------6---------|-7h6-------7h6-------7h6-------3-6-3-----4-----
A|-----7-7-7-----7-5-5-----7-4-4-----------|-----7-7-7-----7-7-5-----7-4-4---------4-------
E|-----------------------------------------|-------------------------------------2---------
Guitarra 2
         e|------------------------9----------------|-------------10-9s12-10-9-7-9------
         B|---7-9-10-9-10S12-10-12---12-10-9-7------|---7-9-10-12-----------------------
         G|-6----------------------------------7-6--|-6---------------------------------
         D|-----------------------------------------|-----------------------------------
         A|-----------------------------------------|-----------------------------------
         E|-----------------------------------------|-----------------------------------

 F#m              E            D
Que agradecido estoy guitarra mia
  Bm
tanto que voy a hacerte y regalarte
 C#7
mi mejor cancion
 F#m             E         D
El hombre que te hizo no sabia
                       Bm
que al ponerte en mis manos me
            C#7
iba a hacer tanto favor

         D        E         A
Por que tu que conoces mis penas
                    C#7
tu que siempre me llenas ese espacio
                F#m - F#
que habita el dolor
      D         E
y me alejas de toda
     A                    Bm
amargura, cuando te pido ayuda nunca
          C#7
dices que no.

  F#m           E             D
Cada vez que me acerco a tu lado
                     Bm
pienso en las cosas buenas que me
            C#7           F#m
has hecho sentir, cuantas noches
   E           D                Bm
conmigo has pasado, en las que casi
                  C#7
siempre no te dejo dormir

           D            E         A
Por que en ti siempre busco el alivio
              C#7
de mis sueños perdidos, de mis horas
               F#m--F#
de angustia y dolor
  D              E             A
cada vez que te tengo en mis manos
                   Bm
tanto es lo que te amo que te hice
         C#7
esta cancion

 F#m             E             D-C#7-F#m
que agradecido estoy guitarra mia....

            
            
Suggest correction
Creating personal tab
Creating personal tab
You can edit any tab online and save it as your Personal.

You can edit, replace or remove any tab part or add personal notes – all changes will be seen only by you.

Personal tabs can be accessed anytime from any device, even offline.
Learn more »
Give kudos to tab author, rate the tab!
1 2 3 4 5
comments
print report bad tab
guest
Wanna post a correction for this tab? Suggest correction