Oops, an error
Loading. Please wait.

¿quién Soy? tab

20 views 1 this week
no commentswrite comment
1 2 3 4 5
3 more votes to show rating
add to favorites
×
Save as Personal and add changes to this tab that will be seen only by you. Learn more ›
×
You can save this tab as Personal to edit and correct it or add notes. All changes will be seen only by you. Learn more »
launch autoscroll
font size
0
reset
how to read this tab
guitar tuner
edit
Autoscroll
slow
fast
+/-
esc
set tempo
stop
F/G/Am         F/G/Am |
----------------------|
-------0h1p1----------|
-------------2--------|x8
----------------------|
----------------------|
----------------------|


(Al empezar la 3ª vez lo anterior comienza el solo:)

-----5-8-7p5---5------------------------------5------------
-------------8---5----------------------5-------8-6-5h6p5--
---5---------------5-7-------5------------7-5-------------7
-7---------------------7-5-7---7-5-7--7--------------------
-----------------------------------------------------------
-----------------------------------------------------------

-----------------------------------------------------------
---5-------------------------------------------------------
-5---7p5---5-----------------------------------------------
---------7--7-5---5--------------------------------------
----------------7---7-5---5-7------------------------------
------------------------8-----8-5--------------------------


F/G/Am
Miro mi cara en un póster y pienso
F/G/Am
Malditos los muertos del cielo y la tierra
F/G/Am                      F/G/Am
Porque dime tú quién soy

F/G/Am
¿No ves ruina en mis ojos?
F/G/Am
¿No ves mis calzones rotos?
F/G/Am
¿Quién soy?

-----------------------------------------------------------
-----------------------------------------------------------
-9-9p7-----------------------------------------------------
-------10-9-7-7-7-9-7-9-10---------------------------------
-----------------------------------------------------------
-----------------------------------------------------------

       C
La grandeza y la impotencia
       G
Se dan la mano si se aman
       Am
Porque no quedan razones
        F
Pa?lamentarse en la cama

       C
Y aquí seguimos absurdos
              G
Idiotas como animales enfermos
               Am
Que adoptan posturas, que corren
                        F
Se sientan, y andan, se ríen y lloran


F/G/Am |x3


-----------------------------------------------------------
-----------------------------------------------------------
-9-9p7-----------------------------------------------------
-------10-9-7-7-7-9-7-9-10---------------------------------
-----------------------------------------------------------
-----------------------------------------------------------

F/G/Am
Y me reencarno en bombas
F/G/Am
Que explotan sus majestades
F/G/Am
Y me entero de que no existen
F/G/Am
Que los reyes son mis padres

F/G/Am
Y me reencarno en mierda
F/G/Am
Que se refriega en tu cara, ¡Por tonto, que eres mongolo!
F/G/Am
Y tu boca va y se calla

-----------------------------------------------------------
-----------------------------------------------------------
-9-9p7-----------------------------------------------------
-------10-9-7-7-7-9-7-9-10---------------------------------
-----------------------------------------------------------
-----------------------------------------------------------


C
La grandeza y la impotencia
       G
Se dan la mano si se aman
       Am
Porque no quedan razones
        F
Pa?lamentarse en la cama

       C
Y aquí seguimos absurdos
              G
Idiotas como animales enfermos
               Am
Que adoptan posturas, que corren
                        F
Se sientan, y andan, se ríen y lloran


-----------------------------------------------------------
-----------------------------------------------------------
-----------------------------------------------------------
-10-10-9----7----------------------------------------------
---------10------------------------------------------------
-----------------------------------------------------------

(Hace esto una vez en solitario y luego lo repite durante todo
el solo):
F/G/Am


-10b12-10-10b12-10-----------------------------------------
-------------------13-10----10-13--8h10-8------------------
-------------------------12---------------9-8-7----7-9p7-7-
------------------------------------------------10---------
-----------------------------------------------------------
-----------------------------------------------------------

-----------------------------------------------------------
-----------------------------------------------------------
---------------------------7-------------------------------
-10-7---7-7-7-7-10-7-7-7-7---7-7-7-7-10--10-10-10p9-9-7-7--
-----------------------------------------------------------
-----------------------------------------------------------

-----------------------------------------------------------
-----------------------------------------------------------
-----------------------------------------------------------
-7-9-7-9-10------------------------------------------------
-----------------------------------------------------------
-----------------------------------------------------------


C
La grandeza y la impotencia
       G
Se dan la mano si se aman
       Am
Porque no quedan razones
        F
Pa?lamentarse en la cama

       C
Y aquí seguimos absurdos
              G
Idiotas como animales enfermos
               Am
Que adoptan posturas, que corren
                        F
Se sientan, y andan, se ríen y lloran


F/G/Am |x3


-----------------------------------------------------------
-----------------------------------------------------------
-9-9p7-----------------------------------------------------
-------10-9-7-7-7-9-7-9-10---------------------------------
-----------------------------------------------------------
-----------------------------------------------------------

            
            
Suggest correction
Creating personal tab
Creating personal tab
You can edit any tab online and save it as your Personal.

You can edit, replace or remove any tab part or add personal notes – all changes will be seen only by you.

Personal tabs can be accessed anytime from any device, even offline.
Learn more »
Give kudos to tab author, rate the tab!
1 2 3 4 5
comments
print report bad tab
guest
Wanna post a correction for this tab? Suggest correction