Oops, an error
Loading. Please wait.

Lleno De Fé chords

26 views 1 this week
no commentswrite comment
1 2 3 4 5
3 more votes to show rating
add to favorites
×
Save as Personal and add changes to this tab that will be seen only by you. Learn more ›
×
You can save this tab as Personal to edit and correct it or add notes. All changes will be seen only by you. Learn more »
launch autoscroll
font size
0
reset
transpose
0
reset
simplify chords
display chords
guitar tuner
edit
Autoscroll
slow
fast
+/-
esc
set tempo
stop
Strumming
There is no strumming pattern for this song yet. and get +5 IQ
HEY ESTA TAMBIEN ME LA PIDIERON AL CORREO ES PARA LOPERAEYED
AUNQUE NO ME GUSTA MUCHO ESTA CANCION AQUI ESTA,
TIENE MAS ARREGLOS PERO CON ESTO SE SACAN.
ESCRIBANME PARA MAS PETICIONES NO TIENEN QUE SER SOLO DE POP CORN


 INTRO (SUENA VARIAS VECES EN TODA LA CANCION)
E----------------------------------------------------------
B----------------------------------------------------------
G----999999-9988--8888888-88----666666666699886688888888---
D----777777-7766--6666666-66----444444444477664466666666---
A----------9----99-------9--9977---------------------------
E----------------------------------------------------------


VERSO

E


A                      D#m           Bm
Hay algo que quiero decirte y no es fácil
   E
Pero debo aguantar
 A                     D#m
Tus ojos, tu cara me obligan
              Bm       E
Y no puedo callar

 REPITE INTRO


VERSO
A          D#m           Bm
No sé porque ando buscando
                  E
Algo más en mi camino
A        D#m                Bm
Sé que eres el más hermoso ser
                       E
Me entiendes, me sientes

Eres mi verdad.


CORO

A5 G#5 G5 F#F#     A5A#B5


Vuelvo a vivir si estas aquí

B5 A5 E5
Vuelvo a soñar si no te vas de mí.


VERSO

Lleno de fe quiero entregarme a ti

Aunque sé que yo no te merezco

Sólo sé que debo luchar

Debo luchar por ti.


CORO


SOLO

E---------9---9-9-7----7---------7------------------------------
B-------------------10---9--9-10--10-9-10-7--7-9-10-9-7-9-------
G---------------------------------------------------------9-----
D---------------------------------------------------------------
A---------------------------------------------------------------
E---------------------------------------------------------------

CORO


CIERRA CON LO MISMO DEL INTRO.

            
            
Suggest correction
Creating personal tab
Creating personal tab
You can edit any tab online and save it as your Personal.

You can edit, replace or remove any tab part or add personal notes – all changes will be seen only by you.

Personal tabs can be accessed anytime from any device, even offline.
Learn more »
Give kudos to tab author, rate the tab!
1 2 3 4 5
comments
print report bad tab
guest
Wanna post a correction for this tab? Suggest correction