Oops, an error
Loading. Please wait.

Otra Canción De Lo Mismo chords

43 views 1 this week
no commentswrite comment
1 2 3 4 5
3 more votes to show rating
add to favorites
×
Save as Personal and add changes to this tab that will be seen only by you. Learn more ›
×
You can save this tab as Personal to edit and correct it or add notes. All changes will be seen only by you. Learn more »
launch autoscroll
font size
0
reset
transpose
0
reset
simplify chords
display chords
guitar tuner
edit
Autoscroll
slow
fast
+/-
esc
set tempo
stop
Strumming
There is no strumming pattern for this song yet. and get +5 IQ
intro:

D5/D5/B5/B5/A5/G5 --

La parte del cambio A5 / C5# / D5(bis)

D5                D5/A
esos dias fueron para mi
  B5
un tatuaje en la memoria
 A5
sentimientos que se funden
  G5
en lo mas hondo de mii
 D5        A5  B5
aveces pienso, mejor no haberte conocido
  A5                             G5
y evitarme el dolor, de hoy no poder estar contigooo
  D5       A5  B5     A5             G5
eeeeeeeeeesta obsesion,,  que no se quita

A5 / C5# / D5(bis)

 D5                      D5/A           B5
El tiempo y la distancia nos separan con más fuerza
   A5                         G5
y parece que lo intentas, y parece que lo intentas
 D5                       B5
tus cartas significan, lo que en ellas escribiste
  A5                    G5
o ya te has olvidado de lo que prometiste
 D5       A5  B5     A5              G5
eeeeeeeeeesta obsesion,,  que no se quita

 D5    A5
sii,,  otra cancion de lo mismo
 B5                    A5
ocupas todo el espacio en mi cabeza
 G5           G5/F#
cuando quieras me destruyes
 E5
cuando quieras haces todo lo que quieras

 D5    A5             B5
oooodioooo  el tamaño del planeta
                A5
la impaciencia que no espera
 G5         G5/F#        E5
tu fantasma me persigue no se que hacer.


con arpegio

 D             A
Siiiiiiiiiiiii otra canción de lo mismo
 B5                      A
ocupas todo el espacio en mi cabeza,


G5            G5/F#
cuando quieras me destruyes,
 E5                                   D5
cuando quieras haces todo lo que quieras.


la segunda guitarra hace estos acordes durante la introduccion


E||--10----9-----10----12----|------||
B||--10----10----10----10----|------||
G||--9-----9-----9-----9-----|------||
D||--------------------------|------||
A||--------------------------|------||
E||--------------------------|------||

y sigue en arpegio en algunas partes de a cancion con eseos mismos acordes

d5/a = re con bajo en la
g5/f# = sol con bajo en fa sostenido

         D5                 D5              D5/A

E||-------------------|-------------------|-------------------|
B||-------------------|-------------------|-------------------|
G||--3----------------|--3----------------|--3----------------|
D||--3----------------|--3----------------|--3----------------|
A||--5----------------|--5----------------|--5----------------|
E||-------------------|-------------------|--5----------------|

        G5                B5

E|-------------------|-------------------|
B|-------------------|-------------------|
G|-------------------|-------------------|
D|--5----------------|--9----------------|
A|--5----------------|--9----------------|
E|--3----------------|--7----------------|

        G5/F#

E|-------------------|
B|-------------------|
G|-------------------|
D|--5----------------|
A|--5----------------|
E|--2----------------|


         E5

E|-------------------|
B|-------------------|
G|-------------------|
D|--2----------------|
A|--2----------------|
E|--0----------------|


CUALQUIER INQUIETUD O COMOENTARIO SOBRE LA TRANSCRIPCION ENVIENLO A
MI CORREO MIGUELANGAT@

            
            
Suggest correction
Creating personal tab
Creating personal tab
You can edit any tab online and save it as your Personal.

You can edit, replace or remove any tab part or add personal notes – all changes will be seen only by you.

Personal tabs can be accessed anytime from any device, even offline.
Learn more »
Give kudos to tab author, rate the tab!
1 2 3 4 5
comments
print report bad tab
guest
Wanna post a correction for this tab? Suggest correction