Oops, an error
Loading. Please wait.

Y Aún Arde Madrid tab

203 views 3 this week
no commentswrite comment
1 2 3 4 5
3 more votes to show rating
add to favorites
×
Save as Personal and add changes to this tab that will be seen only by you. Learn more ›
×
You can save this tab as Personal to edit and correct it or add notes. All changes will be seen only by you. Learn more »
launch autoscroll
font size
0
reset
how to read this tab
guitar tuner
edit
Autoscroll
slow
fast
+/-
esc
set tempo
stop
Acordes:
    RE       MI        SOL
----------------------------------
----------------------------------
----7---------9-------------------
----7---------9----------5--------
----5---------7----------5--------
-------------------------3--------

Solo del principio:

-------------------------------------------------------
-------------------------------------------------------
--7---7-7--5h7p5---------------------------------------
-----------------7----5-7-5---5-5--7-5-0---------------
----------------------------7--------------------------
-------------------------------------------------------

-------------------------------------------------------
-------------------------------------------------------
---------7---7-----------------------------------------
--5-5-7----7---7--5-s-7-s-5-7-7--5-0-------------------
-------------------------------------------------------
-------------------------------------------------------

-------------------------------------------------------
-------------------------------------------------------
-------7-7---------------------------------------------
-0-5-7-----7-5-5---------------------------------------
-----------------7-------------------------------------
-------------------------------------------------------


RE                     MI     SOL                   RE
Hijos del barrio de La Elipa, el Penta fue el local de ensayo
RE                     MI     SOL                              RE
Cuando el Risi nos dijo adiós, yo me abro. Algo se murió en el 2 de Mayo
RE                   MI       SOL                    RE
No es suficiente una canción, para recordar aquellos años
RE                   MI          SOL                       MI
Cuando Madrid era un descontrol, cuando el Rocanrol no era un engaño

SOL                 RE       SOL             RE
Recuerdo los buenos tiempos, recuerdo buenas historias
MI         SOL          RE       MI         SOL          RE
Y aún arde Madrid en mi memoria, y aún arde Madrid en mi memoria


arreglo del saxo

-------------------------------------------------------
-------------------------------------------------------
-----5-7b--7-5---5-7---5-7---7b-55---------------------
-5-7-----------7-----7-----7-------7-5-0---------------
-------------------------------------------------------
-------------------------------------------------------

Buscando peleas en el barrio, cinco macarrillas se juntaron
Imitando a los Stones o asu queridísimo Eric Burdon
Con el cigarro siempre en la boca, chupa de cuero y gafas de rock
Ian Dury estaba sonando en el carro, sexo, droga y rocanrol

Recuerdo los buenos tiempos, recuerdo buenas historias
Y aún arde Madrid en mi memoria, y aún arde Madrid en mi memoria

Donde están las chicas del Drugstore, con Jim Dinamita jugando un billar
Jhony al piano estaba tocando, mueve tus caderas si todo va mal
Y ahora con 40 y muchos tacos, por viejos mas saben que el diablo
Que el rocanrol nunca se ha vendido, ni a las modas ni a empresarios

Recuerdo los buenos tiempos, recuerdo buenas historias
Y aún arde Madrid en mi memoria, y aún arde Madrid en mi memoria

Recuerdo los buenos tiempos, recuerdo buenas historias
Y aún arde Madrid en mi memoria, y aún arde Madrid...

            
            
Suggest correction
Creating personal tab
Creating personal tab
You can edit any tab online and save it as your Personal.

You can edit, replace or remove any tab part or add personal notes – all changes will be seen only by you.

Personal tabs can be accessed anytime from any device, even offline.
Learn more »
Give kudos to tab author, rate the tab!
1 2 3 4 5
comments
print report bad tab
guest
Wanna post a correction for this tab? Suggest correction