Oops, an error
Loading. Please wait.

Llévame bass

24 views 3 this week
no commentswrite comment
1 2 3 4 5
3 more votes to show rating
add to favorites
×
Save as Personal and add changes to this tab that will be seen only by you. Learn more ›
×
You can save this tab as Personal to edit and correct it or add notes. All changes will be seen only by you. Learn more »
launch autoscroll
font size
0
reset
guitar tuner
edit
Autoscroll
slow
fast
+/-
esc
set tempo
stop
Intro: Riff x1 con Base(D  A  E)  x4
Riff:

e|------------------------------------------------------------|
B|------------------------------------------------------------|
G|------------------------------------------------------------|
D|-----------2-4-2----------------------------------------2---|
A|-5-5-5-5-5---------4-0-4-2----5--5-5-5-5-4-2----------2-----|
E|---------------------------------------------0--0-2-4-------|

e|----------------------------------------------------------2-|
B|----------------------------------------------------------3-|
G|----------------------------------------------------------2-|
D|----------------2-------------------------------------------|
A|-5--5-5-5-5-4-5-----4-0-4-2---5-5-4-4-2-2-------------0-----|
E|------------------------------------------3-3-0-0-2-4-------|


D            A           E   D         A         E
 soy libre cuando este viento me pega sobre la piel
D             A        E   D           A        E
 soy parte de este universo cuando me junto con el
D        A        E   D              A      E
 y tu mirada me lleva, me toma y me hace volar
D            A        E  D            A         E
 soy libre cuando yo bebo y el agua apaga esta sed

             D     A     E                       D            A     E
Llevame a lo ondo de tu pecho, llevame hasta el fondo de tus sentimientos
             D    A      E                  D    A        E
llevame de viaje por tus ojos, llevame de viaje con tu calor


Riff:

e|------------------------------------------------------------|
B|------------------------------------------------------------|
G|------------------------------------------------------------|
D|-----------2-4-2----------------------------------------2---|
A|-5-5-5-5-5---------4-0-4-2----5--5-5-5-5-4-2----------2-----|
E|---------------------------------------------0--0-2-4-------|


D           A          E   D           A         E
 cuando se callan las voces que viven dentro de mi
D            A        E   D            A       E
 cuando yo puedo abrazarte y sentirte junto a mi
D             A         E   D            A        E
 cuando se me abren los ojos y entonces ya puedo ver
D             A         E              D        A           E
 que estoy parado en la ola y esa ola rompe y vuelve a creecer


             D     A     E                       D            A     E
Llevame a lo ondo de tu pecho, llevame hasta el fondo de tus sentimientos
             D    A      E                  D    A        E
llevame de viaje por tus ojos, llevame de viaje con tu calor


Solo: Riff x1   con Base  (D  A  E)  x4

Base: (D  A  E)  x4


             D     A     E                       D            A     E
Llevame a lo ondo de tu pecho, llevame hasta el fondo de tus sentimientos
             D    A      E                  D    A        E
llevame de viaje por tus ojos, llevame de viaje con tu calor

            
            
Suggest correction
Creating personal tab
Creating personal tab
You can edit any tab online and save it as your Personal.

You can edit, replace or remove any tab part or add personal notes – all changes will be seen only by you.

Personal tabs can be accessed anytime from any device, even offline.
Learn more »
Give kudos to tab author, rate the tab!
1 2 3 4 5
comments
print report bad tab
guest
Wanna post a correction for this tab? Suggest correction