Oops, an error
Loading. Please wait.

Llévame tab

version 1
version 1

Whole song

31 views 1 this week
no commentswrite comment
1 2 3 4 5
3 more votes to show rating
add to favorites
×
Save as Personal and add changes to this tab that will be seen only by you. Learn more ›
×
You can save this tab as Personal to edit and correct it or add notes. All changes will be seen only by you. Learn more »
launch autoscroll
font size
0
reset
how to read this tab
guitar tuner
edit
Autoscroll
slow
fast
+/-
esc
set tempo
stop
Esta es mi tercera transcripcion. esta canción se toca con una guitarra
y un bajo. la guitarra para la intro, los solos, y las notas; el bajo
toca los riffs, pero que tb se pueden hacer con guitarra..... mua mua


INTRO:
e|----------------------------------------------------------------------
B|----------------------------------------------------------------------
G|----------------------------------------------------------------------
D|--0-0-0-0-0-2-4-2~-------------------------------------2--------------
A|------------------4-0-4-2-0-4p5-5-5-5-5-4-2----------2----------------
E|--------------------------------------------0--0-3/4------------------

e|----------------------------------------------------------------------
B|----------------------------------------------------------------------
G|----------------------------------------------------------------------
D|--0-0-0-0-0---0-0p2~~--------------------------------------2----------
A|------------4--------4-0-4-2-0-4p5-5-4-4-2---------------2------------
E|-------------------------------------------3/4-3-0-0-3/4--------------


Soy libre cuando este viento
e|-------------------------------------
B|-------------------------------------   |
G|-------------------------------------   |  Riff 1
D|---------------2---------------------   |
A|-------2-0---2----------2-4-2--------   |
E|--0--4-----------0--0-4-------4-2-0--   /


Me pega sobre la piel
e|-------------------------------------
B|-------------------------------------   |
G|-------------------------------------   |  Riff 2
D|---------------2---------------------   |
A|-------2-0---2----------2-2-0--------   |
E|--0--4-----------0--0-4-------4-2-0--   /


Soy parte de este universo
(riff 1)
Cuando me junto con él
(riff 2)
D   D    A    E  E    E
Y tu mirada me lleva   -> aquí empieza la guitarra mientras el bajo
 (riff 1)                               toca los riff
Me toma y me hace volar
e|-------------------------------------
B|-------------------------------------   |
G|-------------------------------------   |  Riff 3
D|---------------2-----------2---------   |
A|-------2-0---2-----------2---4-2-0---   |
E|--0--4-----------0-0-3/4-------------   /

Soy libre cuando yo bebo
(riff 2)
Y el agua apaga esa sed
(riff 1)

ESTRIBILLO:

Llévame a lo hondo de tu pecho  (riff 3)
Llévame hasta el fondo de tus sentimientos (riff 2)
Llévame de viaje por tus ojos (riff 1)
Llévame de viaje con tu calor

D|-----------2-0-0-0-0-0-2-4-2~-----------------------------------2------
A|---------2-------------------4-0-4-2-0-4p5-5-5-5-5-4-2---------2-------
E|-0-0-3/4-----------------------------------------------0--0-3/4---4-2-0

D   D           A    E  E      E
Cuando se callan las voces
(riff 3)
Que viven dentro de mi
(riff 2)
Cuando yo puedo abrazarte
(riff 3)
Y sentirte junto a mi
(riff 2)
Cuando se me abren los ojos
(riff 1)
Y entonces ya puedo ver
(riff 2)
Que estoy parado en la ola
(riff 3)
Y esa ola rompe y vuelve a crecer
(riff 2)

ESTRIBILLO (x2)

Se toca la INTRO

ESTRIBILLO (x3)

Y al final -> [D]      [A]      [E]
e|-------------2--------0--------0--------------------------------------
B|-------------3--------2--------0--------------------------------------
G|-------------2--------2--------1--------------------------------------
D|-------------0--------2--------2--------------------------------------
A|-------------0--------0--------2--------------------------------------
E|-------------0--------0--------0--------------------------------------


Besos a victoria que la amo con todo mi corazon, besos tb a Rochi, Cami,
Agos, Agus, Nona, Ana, Tamy, y a Angel...
Cualquier duda martinmmoretti@

            
            
Suggest correction
Creating personal tab
Creating personal tab
You can edit any tab online and save it as your Personal.

You can edit, replace or remove any tab part or add personal notes – all changes will be seen only by you.

Personal tabs can be accessed anytime from any device, even offline.
Learn more »
Give kudos to tab author, rate the tab!
1 2 3 4 5
comments
print report bad tab
guest
Wanna post a correction for this tab? Suggest correction