Oops, an error
Loading. Please wait.

Buscarte - Hallarte tab

23 views 1 this week
no commentswrite comment
1 2 3 4 5
3 more votes to show rating
add to favorites
×
Save as Personal and add changes to this tab that will be seen only by you. Learn more ›
×
You can save this tab as Personal to edit and correct it or add notes. All changes will be seen only by you. Learn more »
launch autoscroll
font size
0
reset
how to read this tab
guitar tuner
edit
Autoscroll
slow
fast
+/-
esc
set tempo
stop
Bueno pues aki les va esta rola, esta chida... Si tienen mas rolas de PM mandenlas ok???


INTRO a):

      G                  Bm              C                  D  Dsus D   Dsus
e ||--------3-3-3-3-3-------3-3-3-3-3-------3-3-3-3-3-------2-2-3-3-2-2-3----||
B ||--------3-3-3-3-3-------3-3-3-3-3-------3-3-3-3-3-------3-3-3-3-3-3-3----||
G ||*-------0-0-0-0-0-------0-0-0-0-0-------0-0-0-0-0-------0-0-0-0-0-0-0---*||
D ||*-----------------------------------------------------------------------*||
A ||-----2-------------0h2-------------2h3-----------------------------------||
E ||---3---------------------------------------------------------------------||


INTRO: b)
Guitarra 1: G - Bm - C - Am-D
Guitarra 2:

   /------ x 3 -----\
e ||------8/10------||-----8/10------------|
B ||---8--------10--||--8--------10--/8-8--|
G ||*--------------*||---------------------|
D ||*--------------*||---------------------|
A ||----------------||---------------------|
E ||----------------||---------------------|


Verso:
      G
      Tengo hambre de ti
      C            D Dsus D Dus
       nada me saciara
               Em         G
      no me quiero conformar
               C               D Dsus D Dsus
      con vivirte siempre igual


Coro 1:
            G        Bm
      Buscarte y amarte
               C
      el seguirte cada dia
                 Am          D
      sera mi busqueda continua
            G          Bm
      Buscarte y hallarte
               C
      encontrarme en tu presencia
                 Am         D
      ver tu gloria manifiesta en mi


 - Se repite INTRO b) -

 - Verso misma sekuencia -


Coro 2:
Guitarra 1 toka akordes
Guitarra 2 esta figurita:

   /------ x 8 -----\
e ||----------------||
B ||----------------||
G ||*--------------*||
D ||*--5--7----9---*||
A ||----------------||
E ||----------------||


Puente:

Guitarra 1: Em - F#-G - C - D

Cada nota se toca varias veces, pero por motivos practikos solo la anote una vez, eskucha bien
la kancion para ke sepas komo va el ritmo...

      Em  F#  -  G                       C                 D
e |----------------------------------------------------------------------|
B |----------------------------------------------------------------------|
G |---9--9/11-11/12-12/14--14/16--16/17-17--19--19/17--16--14--14/16/14--|
D |----------------------------------------------------------------------|
A |---7--7/9---9/10-10/12--12/14--14/15-15--17--17/15--14--12--12/14/12--|
E |----------------------------------------------------------------------|

           C-C
      Quiero correr
           D-D
      Quiero alcanzar
           G   Bm C         Am     D
      Quiero vivirte con sinceridad


 - Coro 1 -

 - Coro 2 -

 - Intro b) x2 - Termina en G

Dudas? Komentarios? Sugerencias? Kejas? ---> burbujo_power_puff_boy@
Suggest correction
Creating personal tab
Creating personal tab
You can edit any tab online and save it as your Personal.

You can edit, replace or remove any tab part or add personal notes – all changes will be seen only by you.

Personal tabs can be accessed anytime from any device, even offline.
Learn more »
Give kudos to tab author, rate the tab!
1 2 3 4 5
comments
print report bad tab
guest
Wanna post a correction for this tab? Suggest correction