Oops, an error
Loading. Please wait.

Eres Mi Palpitar tab

8 views 1 this week
no commentswrite comment
1 2 3 4 5
3 more votes to show rating
add to favorites
×
Save as Personal and add changes to this tab that will be seen only by you. Learn more ›
×
You can save this tab as Personal to edit and correct it or add notes. All changes will be seen only by you. Learn more »
launch autoscroll
font size
0
reset
how to read this tab
guitar tuner
edit
Autoscroll
slow
fast
+/-
esc
set tempo
stop
Bueno pues aki les dejo la version korregida, si tienen alguna duda
o enkuentran algun error en las notas haganmelo saber al mail de
abajo pls... Dios los Bendice!! :)

- Intro -

Guitarra 1: Acordes
Guitarra 2: Fig 1

////B - F# - G#m - E//// B-E

    Fig 1
  pm....   .   .   .   .   .   .   .
e ||--------------------------------------------------||-----------||
B ||-----7---7---7---7---7---7---7---7777/5-555/4-44--||---4-------||
G ||*-77---7---7---7---7---7---7---7-----------------*||---4/9--9--||
D ||*------------------------------------------------*||---4/9--9--||
A ||--------------------------------------------------||---2-------||
E ||--------------------------------------------------||-----------||

(El punto sobre la nota signifika ke esa nota se toka muteada)

- Estrofa -

Guitarra 1: Acordes
Guitarra 2: Fig 2

  Fig 2
e |--------------------------------------|
B |------2-------2-------2-------2-4-----|
G |----4---4---4---4---4---4---4---------|
D |--4-------4-------4-------4-----------|
A |--------------------------------------|
E |--------------------------------------|

             B    E      G#m   F#
      Mi gratitud la tienes tu
            B   E      G#m    F#
      mi corazon contigo está
         B    E    G#m F#
      nada me separará
         B     E     G#m   F#
      del poder de tu amor


- Coro -
          B      F#   G#m   E
      Eres mi palpitar Jesús
          B            F#         G#m    E
      eres el aire que mi espíritu respira
           B    F#    G#m  E
      a tí Señor damos loor
           B           F#       G#m      E       B-E
      y las naciones te alabarán por siempre


- Estrofa -

- Coro -

- Puente -

E - F# - B-C#m-B
E - F# - G#m-A#-B
E - F# - B-C#m-B
E - F# - G#m-A#-B

         B      E      G#m   F#
      Sorprendido estoy aquí
            B   E      G#m   F#
      al admirar tu santidad
         B      E       G#m F#
      mi respuesta es adorar
         B    E    G#m    F#
      en espíritu y verdad


- Coro -

- Coro + Fig 1 - B

Dudas? Komentarios? Sugerencias? Kejas? ---> burbujo_power_puff_boy@

            
            
Suggest correction
Creating personal tab
Creating personal tab
You can edit any tab online and save it as your Personal.

You can edit, replace or remove any tab part or add personal notes – all changes will be seen only by you.

Personal tabs can be accessed anytime from any device, even offline.
Learn more »
Give kudos to tab author, rate the tab!
1 2 3 4 5
comments
print report bad tab
guest
Wanna post a correction for this tab? Suggest correction