Oops, an error
Loading. Please wait.

Es Tu Sangre tab

15 views 1 this week
no commentswrite comment
1 2 3 4 5
3 more votes to show rating
add to favorites
×
Save as Personal and add changes to this tab that will be seen only by you. Learn more ›
×
You can save this tab as Personal to edit and correct it or add notes. All changes will be seen only by you. Learn more »
launch autoscroll
font size
0
reset
how to read this tab
guitar tuner
edit
Autoscroll
slow
fast
+/-
esc
set tempo
stop
Bueno aki les dejo esta rola de PM.
Me gusta musho esta rola... Saludos y Bendiciones


INTRO:

       G - D - C (Fig 1)

Fig 1:

e ----77777-xx-8-x-10-77-----
B ----77777-xx-8-x-10-77-----
G ---------------------------
D ---------------------------
A ---------------------------
E ---------------------------


        G
 Es tu sangre que me limpió
       D
 y borró mi pasado
  C            Am          D
 la proclamaré en cada rincón

G
 Y cuando hablemos
D
 no descanzaremos
  C
 hasta que todos
    Am            D
 conozcan de tu amor


Coro:

     G                D
 Tu sangre Jesus que me lavó
        Am
 limpiará multitudes
         C        D
 derramará salvación
     G                D
 y anunciaremos este pacto nuevo
      Am           C        D
 que recordamos en este momento


        G - D - C (Fig 1)


Puente:

Guitarra 1:

    Em    C     G     D
e --------------------------
B --------------------------
G --------5-----------7-----
D --2-----5-----5-----7-----
A --2-----3-----5-----5-----
E --0-----------3-----------

Guitarra 2:
Esto es mas o menos lo ke toka la segunda guitarra
klaro ke aki puedes improvisar, eskucha bien para ke
puedas sakarlo, el bend del traste 14 es hasta el 16.

e ---------------------------
B --12----12--12-------------
G --14b---14b-14b-12-14------
D ---------------------------
A ---------------------------
E ---------------------------


Outro: G - D - C (Fig 1)
       G - D - C (Fig 1)
       C-D-G


Dudas? Komentarios? Sugerencias? ---> burbujo_power_puff_boy@

            
            
Suggest correction
Creating personal tab
Creating personal tab
You can edit any tab online and save it as your Personal.

You can edit, replace or remove any tab part or add personal notes – all changes will be seen only by you.

Personal tabs can be accessed anytime from any device, even offline.
Learn more »
Give kudos to tab author, rate the tab!
1 2 3 4 5
comments
print report bad tab
guest
Wanna post a correction for this tab? Suggest correction