Oops, an error
Loading. Please wait.

Hoy Te Quiero Amar tab

45 views 1 this week
no commentswrite comment
1 2 3 4 5
3 more votes to show rating
add to favorites
×
Save as Personal and add changes to this tab that will be seen only by you. Learn more ›
×
You can save this tab as Personal to edit and correct it or add notes. All changes will be seen only by you. Learn more »
launch autoscroll
font size
0
reset
how to read this tab
guitar tuner
edit
Autoscroll
slow
fast
+/-
esc
set tempo
stop
Bueno pues otra rola mas de Potencia al Maximo, si tienen dudas o enkuentran
algun error en la tablatura pls eskribanme al mail de abajo, espero sea de
bendicion para ustedes... Dios los Bendice

- Intro -

Guitarra 1: Acordes
Guitarra 2: Fig 1

Fig 1:
     F         C      G    F         C      G
e ||----------------------------------------------------
B ||----------------------------------------------------
G ||--14-14-14-12--9--7-7---14-14-14-12--9--7--5-5------
D ||---x--x--x--x--x--x-x----x--x--x--x--x--x--x-x------
A ||--12-12-12-10--7--5-5---12-12-12-10--7--5--3-3------
E ||----------------------------------------------------

   F         C      G     G#            Bb
e -----------------------------------------------||
B -----------------------------------------------||
G --14-14-14-12--9--7--7/8-8------8/10--10-------||
D -------------------------x-(x7)-x--x--x--(x10)-||
A --12-12-12-10--7--5--5/6-6------6/-8--8--------||
E -----------------------------------------------||
                           *            *

* =Las notas ke tienen * se tokan tantas veces komo marka en el parentesis siguiente.


- Estrofa -

      F            C     G
      Es tiempo de cantar
      F          C       G
      es hora de expresar
      F            C      G          C
      que tu presencia hoy esta aqui

      F           C    G
      Te kiero deklarar
      F             C     G
      y vivir en tu verdad
      F              C    G         C
      me haz dado libertad para amar


- Puente -

      Am          G           F
      Quiero vivir en tu poder
      Am           G           F         G
      y ver tu gloria descender sobre mi


- Coro -

                       C
      Hoy te kiero amar
                  G            Am          F
      kiero alabarte y expresarte mi pasion
                       C
      Hoy kiero brinkar
                  G           Am          F
      kiero gritar de gratitud y adoracion

                       C
      Hoy te kiero amar
                  G            Am          F
      kiero alabarte y expresarte mi pasion
                       C
      Hoy kiero brinkar
                  G           A          Bb
      kiero gritar de gratitud y adoracion

- Intro -

- Estrofa -

- Puente -

- Coro -

- Solo -

      C       G       Am      Bb      C        C      G       Am      Bb
e ||---------------------------------------------------------------------------||
B ||---------------------------------------------------------------------------||
G ||--5-------7-------9-------10------12-------5------7-------9-------10-------||
D ||--x-(x6)--x-(x8)--x-(x8)--x--(x5)--x-------x-(6)--x-(x8)--x-(x8)--x--(x16)-||
A ||--3-------5-------7-------8-------10-------3------5-------7-------8--------||
E ||---------------------------------------------------------------------------||

Los numeros en el parentesis son las veces ke se repite la nota anterior, es un aproximado
asi ke puede variar un poko, eskucha bien la kancion para ke sepas donde van los kambios.

- Puente -

- Coro - x 2 y finaliza kon Bb


Dudas? Komentarios? Sugerencias? Kejas? ---> burbujo_power_puff_boy@
Suggest correction
Creating personal tab
Creating personal tab
You can edit any tab online and save it as your Personal.

You can edit, replace or remove any tab part or add personal notes – all changes will be seen only by you.

Personal tabs can be accessed anytime from any device, even offline.
Learn more »
Give kudos to tab author, rate the tab!
1 2 3 4 5
comments
print report bad tab
guest
Wanna post a correction for this tab? Suggest correction