Oops, an error
Loading. Please wait.

Jesús, Nadie Como Tú tab

11 views 1 this week
no commentswrite comment
1 2 3 4 5
3 more votes to show rating
add to favorites
×
Save as Personal and add changes to this tab that will be seen only by you. Learn more ›
×
You can save this tab as Personal to edit and correct it or add notes. All changes will be seen only by you. Learn more »
launch autoscroll
font size
0
reset
how to read this tab
guitar tuner
edit
Autoscroll
slow
fast
+/-
esc
set tempo
stop
Version kompleta de esta rola muy padre, espero les guste y sea
de Bendicion, ya saben ke si enkuentran errores o tienen alguna
duda eskribanme al mail... Dios los Bendice bye

- Intro -

Guitarra 1: Asus2 - D - F#m - E

Guitarra 2:

Fig 1:Asus2   D    F#m      E
e ||---------------------------------||
B ||----------3----------------------||
G ||*-----2---2---------------------*||
D ||*-7/--2---0------7-9--------9---*||
A ||--7/-----------7------7-7h9------||
E ||---------------------------------||


Fig 2:
e ||--9--10-/12--9-h10-----9--10-/12--9-h10--------||
B ||-------------------12-------------------12-/10-||
G ||-----------------------------------------------||
D ||-----------------------------------------------||
A ||-----------------------------------------------||
E ||-----------------------------------------------||

- Estrofa -
Guitarra 1: Acordes
Guitarra 2: Hace el Fig 1 repitiendo varias veces Asus y D y despues
            lo demas ke va kon el F#m y E.

          Asus2   D       Asus2      D
        Grande excelso mi único creador
         Asus2   D     F#m        E
        Rey soberano, Santo eres Tú
             Asus2     D    Asus2   D
        tu gloria lo llena todo en todo
          Asus2          D    F#m     E
        eres mi buen Pastor, mi Redentor

- Coro 1 -

Guitarra 1: Acordes
Guitarra 2: Fig 3

Fig 3:
e ||----------------------||--------------------------------------||
B ||----------------------||--------------------------------------||
G ||*--------------------*||--------------------------------------||
D ||*--7-9-11--11-11/9-7-*||--7-11-12--12-11-9-------9--------9---||
A ||----------------------||---------------------7-9----7-7h9-----||
E ||----------------------||--------------------------------------||

           Asus2                   F#m
        Jesús, no hay nadie como tú
                          D
        Señor de la creación,
                         F#m         E
        eres el Gran Yo Soy eres mi Salvador
            Asus2              F#m
        mi Rey, sublime eres tú,
                          D
        solo a tí damos loor
                        F#m  E  (Fig 4)
        eres mi amigo fiel


Fig 4:
e ||---9--10-/12--9-h10--------9--10-/12--9-h10-----------||
B ||--------------------12-/10------------------12--/10---||
G ||------------------------------------------------------||
D ||------------------------------------------------------||
A ||------------------------------------------------------||
E ||------------------------------------------------------||

- Estrofa -
- Coro 1 -
- Puente -

Asus2 - D - Asus2 - D

          D      E       Asus2
        Gloria sea a tu nombre
            D      E         Asus2
        Tu reinas sobre la tierra
          D           E     Asus2
        grande es tu misericordia
           D              E
        recibe mi exaltación

- Coro 2 -

Cambia de tono, la guitarra 1 hace los akordes mientras ke en la
segunda vuelta del koro entra la guitarra 2 haciendo la Fig 4.

           E                      C#m
        Jesús, no hay nadie como tú
                          Asus2
        Señor de la creación,
                         C#m         B
        eres el Gran Yo Soy eres mi Salvador
            E                  C#m
        mi Rey, sublime eres tú,
                          Asus2
        solo a ti damos loor
                        C#m  B
        eres mi amigo fiel

Fig 5:
e ||-----------------------||----------------------||
B ||-----------------------||----------------------||
G ||*--8/9--9/11-11/13-13-*||---8/9--9/11-11/13-14-||
D ||*---------------------*||----------------------||
A ||---6/7--7/9---9/11-11--||---6/7--7/9---9/11-12-||
E ||-----------------------||----------------------||

Se repite el coro varias veces y finaliza la rola, la Guitarra 2 kontinua
haciendo la figura 5 y despues se keda la pura voz

Dudas? Komentarios? Sugerencias? ---> burbujo_power_puff_boy@

            
            
Suggest correction
Creating personal tab
Creating personal tab
You can edit any tab online and save it as your Personal.

You can edit, replace or remove any tab part or add personal notes – all changes will be seen only by you.

Personal tabs can be accessed anytime from any device, even offline.
Learn more »
Give kudos to tab author, rate the tab!
1 2 3 4 5
comments
print report bad tab
guest
Wanna post a correction for this tab? Suggest correction