Oops, an error
Loading. Please wait.

No Me Quedaré Inmovil tab

17 views 1 this week
no commentswrite comment
1 2 3 4 5
3 more votes to show rating
add to favorites
×
Save as Personal and add changes to this tab that will be seen only by you. Learn more ›
×
You can save this tab as Personal to edit and correct it or add notes. All changes will be seen only by you. Learn more »
launch autoscroll
font size
0
reset
how to read this tab
guitar tuner
edit
Autoscroll
slow
fast
+/-
esc
set tempo
stop
Aki esta la tablatura kompleta de esta rola, pronto estaré enviandoles
mas... Bendiciones


INTRO:
      G     F     C
e ||-----------------------------------||
B ||-----------------------------------||
G ||*-------------5-------------------*||
D ||*-5-----3-----5-------------------*||
A ||--5-----3-----3-----------1--------||
E ||--3-----1-----------3-1-3---3-1----||


        G
No me quedaré inmovil
        F
ni me cruzaré de brazos
  Csus2
cueste lo que cueste
G
vamos a alcanzarlos
       G
Hoy recibo de tu espíritu
   F
impúlsame hacia afuera
   Csus2
quiero ser testigo
     G
yo iré a donde quieras

G - F - Csus2 - Fig 1:
                   e |-----------------------------|
                   B |-----------------------------|
                   G |-----------------------------|
                   D |----3h5-------3h5-------3h5--|
                   A |--------3h4h5-----3h4h5------|
                   E |-----------------------------|

           G
Queremos, verte Señor
     F
Exaltado mi Dios
          Csus2           G
Hasta lo sumo en cada nación
        G               F
Y toda lengua pueblo, tribu, nación
        Csus2      Bbsus2 G
Confesará Jesús es el  Señor


Solo:

      G                    F                 Csus2      G          G
e ||--------------------------------------------------------||-13/15-|
B ||--13-------13-15-------------13-15---------------13/15--||-------|
G ||*----12-14-------12h14-12-14-------12-14-14-12---------*||-------|
D ||*------------------------------------------------------*||-------|
A ||--------------------------------------------------------||-------|
E ||--------------------------------------------------------||-------|


G - F - C - Fig 1: (x2) y termina en G
               e |------------------------------|
               B |------------------------------|
               G |------------------------------|
               D |----3h5-------3h5-------3h5---|
               A |--------3h4h5-----3h4h5-------|
               E |------------------------------|

Bueno eso es todo, sobre el solo hay unas partes ke no estoy seguro,
pero igual suenabien...
Dudas? Komentarios? Sugerencias? ---> burbujo_power_puff_boy@

            
            
Suggest correction
Creating personal tab
Creating personal tab
You can edit any tab online and save it as your Personal.

You can edit, replace or remove any tab part or add personal notes – all changes will be seen only by you.

Personal tabs can be accessed anytime from any device, even offline.
Learn more »
Give kudos to tab author, rate the tab!
1 2 3 4 5
comments
print report bad tab
guest
Wanna post a correction for this tab? Suggest correction