Oops, an error
Loading. Please wait.

Quiero Ser Tus Manos tab

5 views 1 this week
no commentswrite comment
1 2 3 4 5
3 more votes to show rating
add to favorites
×
Save as Personal and add changes to this tab that will be seen only by you. Learn more ›
×
You can save this tab as Personal to edit and correct it or add notes. All changes will be seen only by you. Learn more »
launch autoscroll
font size
0
reset
how to read this tab
guitar tuner
edit
Autoscroll
slow
fast
+/-
esc
set tempo
stop
Bueno pues ya andaba algo alejado de estos rumbos, aki les dejo
la version kompleta de esta rola, si tienen alguna duda, komentario
o kieren alguna rola eskriban al mail ke ahi viene, Bendiciones...

Guitarra 1: Acustica
Guitarra 2: Electrica

- Intro -

       E          F#m         Asus2              Bsus2
      //Eres digno, eres digno, eres digno mi señor Jesus//

- Estrofa -
Guitarra 1:
      E                  C#m
        Éste es el clamor de mi generación
      Asus2                      Bsus2
        que no se queda viendo ahí
      E                  C#m
        el precio pagaré, tu mandato cumpliré
      Asus2                            Bsus2
        de llevar tu gloria hasta el fin

- Puente -
Guitarra 1:
      C#m
        Toda rodilla se doblará
      Asus2
        toda lengua confesará
      F#m                  Bsus2
        que Jesus es el Señor

- Intro -
Guitarras 1 y 2

- Estrofa -
Guitarra 1: Misma secuencia
Guitarra 2: Acordes con tremolo

- Puente -
Misma secuencia, al final le agregas Asus2-Bsus2, cheka:

                            Bsus2-Asus2-Bsus2
      ...que Jesus es el Señor

- Coro - x 2

      E                     F#m
        Quiero ser tus manos  quiero ser tus pies
      Asus2                     Bsus2
        quiero ser la voz que lleve salvación

- Solo -
     E                F#m           Asus2             Bsus2
e ||----------------------------------------------------------------
B ||--/5-55-5-------5--5-55-5--------5-55-5-------5---7---4---------
G ||--/4-44-4-3/4-4----4-44-4-3/4-4--4-44-4-3/4-4---4-------6--4(4)-
D ||-------------------------------------------------------------4--
A ||----------------------------------------------------------------
E ||----------------------------------------------------------------

    E                   F#m              Asus2
e |----------------------------------------------------------------
B |-----------------12----------------12---------------------------
G |--/9-99-9--11-13-----9-99-9--11-13----9-9-11-13-9---9-9-11-13---
D |--/9-99-9------------9-99-9-----------9-9--9--9-9---9-9--9--9---
A |----------------------------------------------------------------
E |----------------------------------------------------------------

     Bsus2            C#m
e |-----------------------||
B |-------------------5---||
G |--8-88-8-9-9-99-8--6---||
D |--9-99-9-9-9-99-9--6---||
A |-------------------4---||
E |-----------------------||

- Puente -

- Coro - x 4

Termina asi:
                    Bsus2-Asus2-Bsus2 - E
...ser la voz que lleve salvación

Dudas? Komentarios? Sugerencias? --->burbujo_power_puff_boy@
Suggest correction
Creating personal tab
Creating personal tab
You can edit any tab online and save it as your Personal.

You can edit, replace or remove any tab part or add personal notes – all changes will be seen only by you.

Personal tabs can be accessed anytime from any device, even offline.
Learn more »
Give kudos to tab author, rate the tab!
1 2 3 4 5
comments
print report bad tab
guest
Wanna post a correction for this tab? Suggest correction