Oops, an error
Loading. Please wait.

Tan Real tab

13 views 1 this week
no commentswrite comment
1 2 3 4 5
3 more votes to show rating
add to favorites
×
Save as Personal and add changes to this tab that will be seen only by you. Learn more ›
×
You can save this tab as Personal to edit and correct it or add notes. All changes will be seen only by you. Learn more »
launch autoscroll
font size
0
reset
how to read this tab
guitar tuner
edit
Autoscroll
slow
fast
+/-
esc
set tempo
stop
Bueno pues ahi les va otra rola  de PM, tengo mas pero no he tenido chance de pasarlas en tab,
espero sea de bendicion para ustedes. Dios los Bendice

- Intro -

e ||------------------------------------------------------------------||
B ||------------------------------------------------------------------||
G ||*----------------------------------------------------------------*||
D ||*----------------------------------------------------------------*||
A ||------5h7-7--------5-5554--444h5------5h7-7--------5-5545-7p5p4---||
E ||---0--------00-000------------------0--------00-000---------------||

                           ____________________________   __________________________
                         /  1                           /  2
e|------------------------------|------------------------------|--------------------------||
B|------------------------------|------------------------------|--------------------------||
G|*-----------------------------|-----------------------------*|--------------------------||
D|*----7/9-9--------7-7776--6/7-|---7/9-9---------7-7767--7/9-*|---7/9-9----------7--6--4-||
A|--2--5/7-7-22-222-5-5554--4/5-|-2-5/7-7--22-222-5-5545--5/7--|-2-5/7-7--22-222--5--4--2-||
E|--0--------00-000-------------|-0--------00-000--------------|-0--------00-000----------||

- Estrofa -

      E                 Asus2
      Mi obsesion por encontrarte
      E                   Asus2
      es un hambre por conocer mas de ti
      E              Asus2
      mi anhelo por buscarte
      E            Asus2
      es el alimento para vivir

      Bsus2         C#m Asus2            Bsus2
      De ti cantaré    por ti vivire
      Bsus2        C#m Asus2            Bsus2
      eres tan real    que me haces respirar


- Coro -
              E         Bsus2    C#m          Bsus2
       Tan real, tan real, caminar en tu verdad
              E         Bsus2        C#m               Bsus2
      tan real, tan real, que mi amor te he de entregar
              E         Bsus2   C#m         Bsus2
      Tan real, tan real, al oir tu palpitar
              E         Bsus2     C#m         Bsus2
      tan real, tan real doy mi vida por estar

      Conociendote!!

- Intro -

e ||---------------------------------------------------------------||
B ||---------------------------------------------------------------||
G ||*--------------------------------------------------------------||
D ||*-----7/9-9--------7-7776--6/7-----7/9-9----------7--6--4------||
A ||---2--5/7-7-22-222-5-5554--4/5---2-5/7-7--22-222--5--4--2------||
E ||---0--------00-000---------------0--------00-000---------------||

_ Estrofa -

- Coro -

- Puente -

e ||-------------------------------||
B ||-------------------------------||
G ||*-----------------------------*||
D ||*-----7/9-9---------7--6-7----*||
A ||---2--5/7-7-22-222--5--4-5-----||
E ||---0--------00-000-------------||

      Bsus2 - C#m - Dsus2 - E - E - F# - G - A - B-B-B

- Coro -
       Tan real, tan real, caminar en tu verdad
              E         Bsus2          Asus2 (sube 1/2 tono)
      tan real, tan real, que mi amor te he de entregar
              F         Csus2   Dm          Csus2
      Tan real, tan real, al oir tu palpitar
              F         Csus2     Dm          Csus2
      tan real, tan real doy mi vida por estar

              F         Csus2    Dm           Csus2
       Tan real, tan real, caminar en tu verdad
              F         Csus2     Dm          Csus2
      tan real, tan real doy mi vida por estar
               F
      Conociendote!!


Dudas? Komentarios? Sugerencias? Kejas? ---> burbujo_power_puff_boy@
Suggest correction
Creating personal tab
Creating personal tab
You can edit any tab online and save it as your Personal.

You can edit, replace or remove any tab part or add personal notes – all changes will be seen only by you.

Personal tabs can be accessed anytime from any device, even offline.
Learn more »
Give kudos to tab author, rate the tab!
1 2 3 4 5
comments
print report bad tab
guest
Wanna post a correction for this tab? Suggest correction