Oops, an error
Loading. Please wait.

Déjame Solo chords

version 3
version 3

Whole song

14 views 3 this week
no commentswrite comment
1 2 3 4 5
3 more votes to show rating
add to favorites
×
Save as Personal and add changes to this tab that will be seen only by you. Learn more ›
×
You can save this tab as Personal to edit and correct it or add notes. All changes will be seen only by you. Learn more »
launch autoscroll
font size
0
reset
transpose
0
reset
simplify chords
display chords
guitar tuner
edit
Autoscroll
slow
fast
+/-
esc
set tempo
stop
Strumming
There is no strumming pattern for this song yet. and get +5 IQ
La tab esta 100% correcta, cualquier duda enviame un correo.

Intro:

e|-0---0----0----0-------0---0----0----0----|
B|-0--0----0----0-----0--0--0----0----0---0-|
G|-1-1----1----1-----1---1-1----1----1---1--|
D|-2---------------------2------------------|
A|-2---------------------2------------------|
E|-0---------------------0------------------|

(verso)
E                                              C#m
Quiero que me hagas un favor, si no es mucha molestia
A                                                B
No me mires a los ojos otra vez, a mi si me da verguenza
E                                                 C#m
No te aferrez al pasado otra vez, es que tu no te das cuenta
A                                                 B
que lo que paso aqui entre nosotros ya no vale mas la pena

(precoro)
A                                     B
Date cuenta, el dolor el sentimiento, date cuenta,

que si digo te amo miento.

(coro)
E
y es que me duele estar aqui, si me quedo me lastimo
C#m
y si me voy lejos de ti, mi costumbre, mi delirio
A                                                       B
que regreses hoy a mi, no te entiendo ni me entiendo yo a mi
                            E  Esus  E  Esus
porfavor dejame solo estar asi.

(verso)
E
Que puedo yo aqui sin ti, seria imperfecto y aburrido
C#m
pero no quiero sufrir, yo jamas a ti te olvido
A
dejame pensar en mi y tambien pensar en ti,
B
para ver que es lo mejor que aqui nos puede ocurrir,
E
dejame pensar las cosas, para ya no estar asi,
C#m
deja que se den las cosas, no apresures nada aqui,
A
deja que el tiempo arregle lo que en nosotros sucede,
B
deja que la experiecia se nos de


(precoro)
        A                                    B
Date cuenta, estas apunto de perderme date cuenta,

yo si quiero reponerme

(coro)
   E
y es que me duele estar asi, si me quedo me lastimo,
      C#m
y si me voy lejos de ti, mi custombre mi delirio
    A                                                    B
que regreses hoy a mi, no te entiendo ni me entiedo yo a ti
                             E
porfavor dejame solo estar asi.
                                       C#m
para ya no estar peliando y lastimarme yo asi,
                                  A
ya no quiero ver mas lagrimas que escurren de ti,
                                        B
ni de mi ya no quiero saber mas de ese llanto,
                              E
porfavor dejame solo estar asi,

solo estar asi, solo estar asi, solo estar asi,
                           C#m
solo estar asi, solo estar asi, solo estar asi,

solo estar asi, solo estar asi, solo estar asi,
             A        B                     E (un solo rasgueo )
solo estar asi, woooouuuuuuuoo, woooouuuuuuooo(y luego va el   )
                                              (arepego de abajo)
   E                                         E
e|-0---0--0----0--0--0---0---0--0----0--0----0-|
B|-0--0--0----0--0--0---0---0--0----0--0--0--0-|
G|-1-1--1--1/2--2--2--2/1--1--1--1/2--2--2-2-1-|
D|-2-----------------------------------------2-|
A|-2-----------------------------------------2-|
E|-0-----------------------------------------0-|

(-Segunda guitarra durante el principio y el segundo coro-)
   E                   C#m
e|-0---0----0----0------4---4----4----4-----|
B|-0--0----0----0----0--5--5----5----5---5--|
G|-1-1----1----1----1---6-6----6----6---6---|
D|-2--------------------6-------------------|
A|-2--------------------4-------------------|
E|-0--------------------0-------------------|
   A                    B
e|-0---0----0----0------4---4----4----4-----|
B|-2--2----2----2----2--5--5----5----5---5--|
G|-2-2----2----2----2---6-6----6----6---6---|
D|-2--------------------6-------------------|
A|-0--------------------4-------------------|
E|-0--------------------0------
Suggest correction
Creating personal tab
Creating personal tab
You can edit any tab online and save it as your Personal.

You can edit, replace or remove any tab part or add personal notes – all changes will be seen only by you.

Personal tabs can be accessed anytime from any device, even offline.
Learn more »
Give kudos to tab author, rate the tab!
1 2 3 4 5
comments
print report bad tab
guest
Wanna post a correction for this tab? Suggest correction