Oops, an error
Loading. Please wait.

Desnúdate tab

20 views 1 this week
no commentswrite comment
1 2 3 4 5
3 more votes to show rating
add to favorites
×
Save as Personal and add changes to this tab that will be seen only by you. Learn more ›
×
You can save this tab as Personal to edit and correct it or add notes. All changes will be seen only by you. Learn more »
launch autoscroll
font size
0
reset
how to read this tab
guitar tuner
edit
Autoscroll
slow
fast
+/-
esc
set tempo
stop
Que tal... Aquí les dejo con otra canción de Poyo Segovia.
Vale la pena decirles que en lo único que hay que ponerle empeño es
en un par de acordes.

Esta versión es la exacta, no hace falta darle vueltas al asunto!
Sigan la canción y no van a tener problemas...

Si tienen problemas está colgado en  un vídeo tutorial
de la canción con el nombre: Desnúdate - Tutorial Poyo Segovia

Capo: 4to. Traste

Acordes:
            G# C# F# B  D# G#
Emaj7       0  2  1  1  0  0
E7          0  2  0  1  0  0
E7*         0  2  0  1  3  0
C#7         x  4  3  4  0  4
F#m         2  4  4  2  2  2
B7          x  2  1  2  0  2
Emmaj7/F#   2  2  1  0  0  0

Intro:

g#|---------------------3-3-3--2-2-2--0-0--2--0--
D#|---------------------0-0-0--0-0-0--0-0--0--0--
B |--4-4-4-4-4-4-4-4-4--3-3-3--2-2-2--1-1--2--0--
F#|--3-3-3-3-3-3-3-3-3--2-2-2--1-1-1--2-2--1--1--
C#|--4-4-4-4-4-4-4-4-4--3-3-3--2-2-2--2-2--2--2--
G#|-----------------------------------0-0-----2--

Verso: 1 (Arpegiado)

E      Emaj7         E7
 Mírame,    oh mírame
                       A
mis ojos quieren desnudarte
 C#7     F#m          B7                E  Emmaj7/F#
pues tu cuerpo es una obra de arte para mi

Verso: 2 (Arpegiado)

E      Emaj7         E7
 Ámame,     ven ámame
                     A
mi cuerpo pide el tocarte
C#7 F#m            B7       E  E7*
no sabes lo que provocas en mi

Coro: 1 (Rasgado)

A       B7              E
 Empieza  por arrancarme
            C#7                F#m
toda la ropa,  luego al mirarme
                B7           E
dime que me amas,  en el oído
                  C#7             F#m
con voz susurrando   besa despacio
              B7            E
todo mi cuerpo  toma mi mano,
             C#7             F#m
dame un abrazo  dime despacio
                     B7        E  Emmaj7/F#  E  Emmaj7/F#
que para siempre te quedarás aquí

Verso: 3 (Arpegio)

Desnúdate, desnúdate
quiero mirarte sin descanso
tenerte hasta que muera de ansias
por ti.

Coro: 2 (Rasgado)

La noche no están obscura
pues tu mirada es una estrella
que me va guiando por tu camino
hacia donde se esconden tantos secretos
tantas caricias me vuelves loco amor... Uh uh uhh

Notas del Solo: E Emaj7 C#7 F#m B7 E Emaj7 C#7 F#m B7 E

h Hammer
B Bend
r Release
~ Vibrato
p Pull off
s Slide (hacia arriba del mastil)

Solo Sin Capo:

e|-----------------------------------------------------------
B|-----------------------16----------------------------------
G|--------13----15b(17)~----15b(17)r15-13----13-15-13~--13s--
D|--13h15----13---------------------------15-----------------
A|-----------------------------------------------------------
E|-----------------------------------------------------------

e|--------------------------------------------------------------------
B|--------------13----------13----------13----------13----------------
G|--------13----15b(17)r15--15b(17)r15--15b(17)r15--15b(17)r15-13-15~-
D|--13h15----13-------------------------------------------------------
A|--------------------------------------------------------------------
E|--------------------------------------------------------------------

e|--------------------------------------------------------------------
B|----------16-----------------------------13-------------------------
G|--15b(17)----15b(17)r15-13-15-15~--------13----15b(17)r15-15b(17)~--
D|-----------------------------------13h15----13----------------------
A|--------------------------------------------------------------------
E|--------------------------------------------------------------------

e|--------------------------------------------------------------
B|--------------------13---------13-----------------------------
G|--------------13----15b(17)r15-15b(17)r15-13-13~--------------
D|--13-13-13h15----13------------------------------15-15-13-----
A|----------------------------------------------------------16--
E|--------------------------------------------------------------

e|-----------------------------------------------------------
B|--13------------13------------13------------13-------------
G|--15b(17)r15----15b(17)r15----15b(17)r15----15b(17)r15-----
D|-------------13------------13------------13------------13--
A|-----------------------------------------------------------
E|-----------------------------------------------------------

e|--------11-------11-------11-------11---------------------------
B|--11h13----11h13----11h13----11h13----11h13-11------------------
G|-----------------------------------------------13----13-15-13~--
D|--------------------------------------------------15------------
A|----------------------------------------------------------------
E|----------------------------------------------------------------

e|-----------------------------------------
B|-----------------------------------------
G|-----------------------------------------
D|--------13h15----------------------------
A|--13h15-------15p13s11----11h13-11~-11s--
E|-----------------------13----------------

Coro: 3 (Rasgado)

Consigue que mis tristezas
se me olviden, todas las penas,
que este momento, sea eterno
quiero que nunca dejemos de vernos
con esos ojos de amor inmenso...

Final: E  Emmaj7/F#  E  Emmaj7/F#

            
            
Suggest correction
Creating personal tab
Creating personal tab
You can edit any tab online and save it as your Personal.

You can edit, replace or remove any tab part or add personal notes – all changes will be seen only by you.

Personal tabs can be accessed anytime from any device, even offline.
Learn more »
Give kudos to tab author, rate the tab!
1 2 3 4 5
comments
print report bad tab
guest
Wanna post a correction for this tab? Suggest correction