Oops, an error
Loading. Please wait.

Dime Que Sí tab

23 views 1 this week
no commentswrite comment
1 2 3 4 5
3 more votes to show rating
add to favorites
×
Save as Personal and add changes to this tab that will be seen only by you. Learn more ›
×
You can save this tab as Personal to edit and correct it or add notes. All changes will be seen only by you. Learn more »
launch autoscroll
font size
0
reset
how to read this tab
guitar tuner
edit
Autoscroll
slow
fast
+/-
esc
set tempo
stop

E--3-------3-------2-------2-----0-------0-----2-------2-------l
B----3---3-----------3---3---------1---1---------3---3---------l
G------4---------------4-------------0-------------2-----------l
D--------------------------------------------------------------l
A--------------------------------------------------------------l
E--------------------------------------------------------------l


E-2-3-------3-------2-------2-----0-------0-----0-------0------l
B-----3---3-----------3---3---------1---1---------0---0--------l
G-------4---------------4-------------0-------------0----------l
D--------------------------------------------------------------l
A--------------------------------------------------------------l
E--------------------------------------------------------------l


E--2-------2------2---------l
B----3---3--------3---------l
G------2----------2---------l
D---------------------------l
A---------------------------l
E---------------------------l


      G                               Bm
 El saber en donde estas me ayuda a recordar
       C                        D
 El sabor y la presencia de la libertad
          G                           Bm
 El que estes tan lejos y saber que eres feliz
           C                    D
 Me hace sentir vivo y me hace feliz a mi
  Em                   Bm
 Pero Cuáles son tus sueños
            C                       D7
 Si estoy dentro de ellos o si te olvidas de mí
       Em               Bm
 Tal  vez podre ser tu dueño
     C                         D
 Revivir todo lo que no acabo para mi
         C                  D7
 Ser felizes para simpre hasta morir
   G            D
 Quiero sentir más
         C                       D7
 Esta felicidad puede crecer aun mas y mas
   G          D
 Quiero regresar
           C                             D7
 Volver a verte entre mis brazos me completará
         Em              Bm
 Por que asi tal vez  recorrer
       C                         D7
 El Peligro de arriesgar mi libertad me hara gritar
 Em               Bm
 Que quiero morir asi
            C                            Am
 Pues a tu lado ni el alcohol me hace sentir asi
            C                       D7          G
 Tocar el cielo y el infierno sin salir de aqui

          G                          Bm
 Y es que no hay explicaciones para decorar
         C                       D
 El que muera por tenerte y poderte besar
           G                      Bm
 Ya no hablemos del pasado eso quedo atrás
         C                        D
 Aprenderemos del error y vamos a empezar
    Em              Bm
 Porque puede ser eterno
        C                     D7
 Que volvamos a tenernos sin mirar atrás
     Em               Bm
 Tal vez puede ser un cuento
            C                          D
 Aquel que nunca en tu niñez pudiste ver asi
            C                             D7
 Aquel que tiene un fin distinto al que quieras vivir
   G           D
 Quiero sentir mas
        C                        D7
 Esta felicidad puede crecer aun mas y mas
   G         D
 Quiero regresar
            C                            D7
 Volver a verte entre mis brazos me completará
          Em               Bm
 Por que asi tal vez recorrer
       C                        D7
 El peligro de arriesgar mi libertad me hara gritar
  Em             Bm
 Que kiero morir asi
            C                            Am
 Pues a tu lado ni el alcohol me hace sentir asi
            C                               D7
 Tocar el cielo y el infierno sin salir de aqui


 (LO DEMAS SE QUEDA EN: G-Bm-C-D)
Suggest correction
Creating personal tab
Creating personal tab
You can edit any tab online and save it as your Personal.

You can edit, replace or remove any tab part or add personal notes – all changes will be seen only by you.

Personal tabs can be accessed anytime from any device, even offline.
Learn more »
Give kudos to tab author, rate the tab!
1 2 3 4 5
comments
print report bad tab
guest
Wanna post a correction for this tab? Suggest correction