Oops, an error
Loading. Please wait.

Eres Difícil tab

5 views 1 this week
no commentswrite comment
1 2 3 4 5
3 more votes to show rating
add to favorites
×
Save as Personal and add changes to this tab that will be seen only by you. Learn more ›
×
You can save this tab as Personal to edit and correct it or add notes. All changes will be seen only by you. Learn more »
launch autoscroll
font size
0
reset
how to read this tab
guitar tuner
edit
Autoscroll
slow
fast
+/-
esc
set tempo
stop
*** ESPERO Y POR LO MENOS SIRVA
 ESTA ROLA PARA UNA REFERENCIA
 DE LAS NOTAS ORIGINALES****
TRASNCRITA POR JOSE ROBERTO QUIROZ CUATE-...
UN SALUDO PARA EL POLLO...
LES RECOMIENDO A LEO MENDEZ... SUERTE...

QUE TAL ESPERO HABER ECHO UN BUEN TRABAJO
PARA ESTA ROLA... AHI VAN LOS ACORDES...


   F     cº5  E5   C5    F5    G5    D5    A#5
E:-1-----0----0----x----x-----x-------X-----X--
B:-1-----6----0----x----x-----x-------X-----X--
G:-2-----5----9----5----10----12------7-----3--
D:-3-----x----9----5----10----12------7-----3--
A:-3-----3----7----3----8-----10------5-----1--
E:-1-----0----x----x----x-----x-------X-----0--

:::::INTRO::  F-Cº5-F-Cª5
              E5-C5
              F5-G5-F5-E5-F5
              G5-F5-E5-F5/E5 C5

::AQUI VA UN ARPEGO::: ESTE ES......

E------------
B----1-------
G-------0----
D---------3--
A-3----------
E------------ (X4)


Quisiera decirte qe te amo
E------------------------
B-------------1----------
G--------0-------0----0--
D-----3-----3-------3----
A--3---------------------
E------------------------
(ESTA PARTE ARPEGEADA REPITELA 4 VECES)


pero no puedo
E----------------------------
B--------------1-------------
G--------2---------2-----2---
D------2----2----------2---2-
A---0------------------------
E----------------------------
(ESTA PARTE ARPEGEADA REPITELA 2 VECES)


no tengo el valor
E---------------------------
B--------------1------------
G-------0---------0-------0-
D----2-----2----------2-----
A--3------------------------
E---------------------------
(ESTA PARTE ARPEGEADA REPITELA 2 VECES)


sueño con qUe un dia te des cuenta y sola
E------------------------
B-------------1----------
G--------0-------0----0--
D-----3-----3-------3----
A--3---------------------
E------------------------
(ESTA PARTE ARPEGEADA REPITELA 4 VECES)


vengas tu
E----------------------------
B--------------1-------------
G--------2---------2-----2---
D------2----2----------2---2-
A---0------------------------
E----------------------------
(ESTA PARTE ARPEGEADA REPITELA 2 VECES)

pero es mucho pedir
E---------------------------
B--------------1------------
G-------0---------0-------0-
D----2-----2----------2-----
A--3------------------------
E---------------------------
(ESTA PARTE ARPEGEADA REPITELA 2 VECES)

F
disculpame si me meto en tu vida
      Am
solo esqe tu
   C
me gustas de mas
   F
no se qe fue
                                Am
si un golpe en la cabesa o solo fue tu piel
   C
qe me hizo caer

::: GUITARRA:::
E------------------------
B-------------1----------
G--------0-------0----0--
D-----3-----3-------3----
A--3--------------------
E------------------------

 D5             A#5
dejame tomar un poco de valor
       F                            C5
para aCercame y decirlo Y no depender de una cancion
D5                 A#5                   F
es dificil aCercarme y decirte lo qe siento yo por ti
                 C5
y mas qe me sonrias a mi

E-----------------0------------
B----------1-------------1-----
G------0------0-------0-----0--
D---3--------------------------
A------------------------------
E------------------------------
F
qisiera qe el Hombre de tus sueños fuera
Am
yo en verad
  C
eso si es soñar
   F
creeme jamas te aria sufrir
          Am
nunca te aria llorar
C
eso ya es de mas

 D5             A#5
dejame tomar un poco de valor
       F                            C5
para aCercame y decirlo Y no depender de una cancion
D5                 A#5                   F
es dificil aCercarme y decirte lo qe siento yo por ti
                 C5
y mas qe me sonrias a mi (ME SONRIAS A MI)


INTERMEDIO:  Dm-A#-F-C


D5             A#5
dejame tomar un poco de valor
       F                            C5
para aCercame y decirlo Y no depender de una cancion
D5                 A#5                   F
es dificil aCercarme y decirte lo qe siento yo por ti
                 C5
y mas qe me sonrias a mi (ME SONRIAS A MI)

BTOBTO_3@
(SI ESTA MAL MI TRANSCRIPCION AVISAME )
JOSE ROBERTO QUIROZ CUATE
ORIGINARIO DE CUAUTLA MORELOS MEXICO!!!!!!!!!!!!!

            
            
Suggest correction
Creating personal tab
Creating personal tab
You can edit any tab online and save it as your Personal.

You can edit, replace or remove any tab part or add personal notes – all changes will be seen only by you.

Personal tabs can be accessed anytime from any device, even offline.
Learn more »
Give kudos to tab author, rate the tab!
1 2 3 4 5
comments
print report bad tab
guest
Wanna post a correction for this tab? Suggest correction