Oops, an error
Loading. Please wait.

Lo Que Perdí tab

version 2
version 2

Whole song

11 views 1 this week
no commentswrite comment
1 2 3 4 5
3 more votes to show rating
add to favorites
×
Save as Personal and add changes to this tab that will be seen only by you. Learn more ›
×
You can save this tab as Personal to edit and correct it or add notes. All changes will be seen only by you. Learn more »
launch autoscroll
font size
0
reset
how to read this tab
guitar tuner
edit
Autoscroll
slow
fast
+/-
esc
set tempo
stop
Esta canción la saco mi amigo Zuly pero como es medio mala
onda no la a querido subir?Ahí 3 acordes que no tengo
idea de lo que sea pero si no la tocan como esta no les saldrá.


ACORDES:
A-Em-Ar1-Ar2-Ar3

Ar1  Ar2  Ar3  A   E  C#m
--0---0---0----0---0---4--
--0---0---5----2---0---5--
--4---5---6----2---1---6--
--4---5---6----2---2---6--
--2---3---4----0---2---4--
--0---0---0----0---0---4--

INTRO
-----------------0-------------------------
------------0--------0----------------0----
--------4---------------4----------4-------
-----6---------------------6-----6---------
---4--------------------------4------------
-------------------------------------------

----------0-----------------------------------
-------0-----0--------------0--------0--------
-----4---------4----------4---------4---------
---6--------------6-----6---------6-----------
----------------------0---------0-------------
----------------------------------------------


--------------0----------------------------
-----------0----0-------------------0------
---------4--------4--------------4---------
------6-------------6---------6------------
-------------------------------------------
---0----------------------0----------------

-----------0-------------------------------------
-------0-------0--------------0-------------0----
-----4-----------4----------4------------4-------
---6---------------6------6-----------6----------
--2---------------------2----------3------------4
-------------------------------------------------

Tus dedos debieron haber quedado así:

-0-
-0-
-4- Rasguea según el ritmo de la canción.
-6- Despues cambias a E-Ar1-Ar2-Ar3
-4- (antes de que acabe el ultimo acorde empieza a cantar)
-0-

Ar3        A            E
   Quieres verme ami llorar
      Ar1   Ar2    Ar3
deasahogandome de ti
     A          E
suplicandote volver,
       Ar1    Ar2    Ar3
cuando ya cuenta me di
       A          E
de que todo lo perdi
       Ar1  Ar2   Ar3
por nunca dejarte ir
        A        E          Ar1    Ar2      Ar3
y no se como sucedio mi corazon en ti se acabo
        A           E               Ar1  Ar2      Ar3
solo me queda recuperar lo que el pasado me hiso tirar.

(as un arpejeo con la 1ª 2ª i 3er cuErdA DEl AR3 sigue la
cansion)


A-E-Ar1-Ar2-Ar3

A        E         Ar1    Ar2  Ar3
solo una ves... no volvere a caer....
   A              E           Ar1       Ar2    Ar3
Te llevas todo mi corazon por que no te llavas mi dolor

(aOra fijate vien en la cansion como van los rasgueos de esta
parte)

A-E-Ar1-Ar2-Ar3

C#m
  disculpame
A               E
  kiero regresar ami
        Ar1     Ar2
todo lo ke a tu lado perdi.
Ar3
  se ke no es normal
A
  todo te lo di
E         Ar1    Ar2   Ar3
  no lo supimos aprobechar
                  A
No hay vuelta atras
                  E
No hay vuelta atras
        Ar1         Ar2    Ar3
los dos tenemos que continuar
                  A
No hay vuelta atras
                  E
No hay vuelta atras
        Ar1         Ar2    Ar3
los dos tenemos que continuar

            
            
Suggest correction
Creating personal tab
Creating personal tab
You can edit any tab online and save it as your Personal.

You can edit, replace or remove any tab part or add personal notes – all changes will be seen only by you.

Personal tabs can be accessed anytime from any device, even offline.
Learn more »
Give kudos to tab author, rate the tab!
1 2 3 4 5
comments
print report bad tab
guest
Wanna post a correction for this tab? Suggest correction