Oops, an error
Loading. Please wait.

Niña tab

version 1
version 1

Whole song

30 views 1 this week
no commentswrite comment
1 2 3 4 5
3 more votes to show rating
add to favorites
×
Save as Personal and add changes to this tab that will be seen only by you. Learn more ›
×
You can save this tab as Personal to edit and correct it or add notes. All changes will be seen only by you. Learn more »
launch autoscroll
font size
0
reset
how to read this tab
guitar tuner
edit
Autoscroll
slow
fast
+/-
esc
set tempo
stop
Bueno banda esta es mi primera transcripción ojala les guste...
Esta rola es muy buena...

INTRO...
e |--------------------------------0-----|
B |----------------0----2----------------|
G |------------2----------------2--------|
D |--------2------------------2----------|
A |----0--------------------4------------|
E |--------------------------------------|


e |-----------------2-----------------------0---|
B |------------2------2---------------------0---|
G |--------2-------------------------1------1---|
D |-----4--------------------------2--------2---|(x2)
A |-----------------------------------------2---|
E |------------------------------0----------0---|


e |-----------------------------------------------|
B |-----------------0-------------------2---------|
G |------------2-------------------2--------------| (x2)
D |--------2------------------2-------------------|
A |-----0-----------------0-----------------------|
E |-----------------------------------------------|  *


e |---------------------------------|
B |----------------0------------2---|
G |-----------2--------------2------|
D |-------2---------------2---------|
A |----0---------------0------------|
E |---------------------------------|
       Mi ansiedad      me matara

e |--------------------------------------2---------0----|
B |----------0---------------------------2---------0----|
G |-------2--------------2--------2------2---------1----|
D |----2--------------2---------2--------4---------2----|
A |-0--------------0----------4----------4---------2----|
E |--------------------------------------2---------0----|
      Si no te veo un día mas...

e |---------------------------------|
B |----------------0------------2---|
G |-----------2--------------2------|
D |-------2---------------2---------|
A |----0---------------0------------|
E |---------------------------------|
        MI corazón     estallará

e |--------------------------------------2---------0----|
B |----------0---------------------------2---------0----|
G |-------2--------------2--------2------2---------1----|
D |----2--------------2---------2--------4---------2----|
A |-0--------------0----------4----------4---------2----|
E |--------------------------------------2---------0----|
       Si no te beso una vez mas

e |-------------------0-----------------0----|
B |------------------------------------------|
G |-------------2------------------2---------|
D |---------2------------------2-------------|
A |------4-----------------4-----------------|
E |------------------------------------------|
       Me siento muerto     dos segundos


e |---------------0-------------------0---------|
B |---------------------------------0-----------|
G |-----------2-------------------1-------------|
D |-------2-------------------------------------|
A |---4-----------------------------------------|
E |----------------------------0----------------|
          Antes de mirarte y...

e |---------------0------------0-------------0----|
B |----------------------------------------0------|
G |------------2------------2-----------1---------|
D |---------2------------2------------------------|
A |------4------------4---------------------------|
E |----------------------------------0------------|
        Segundos después     siento que despego

e |----------0---------------0------0-----|
B |--------0-----------------0------0-----|
G |------1-------------------1------2-----|
D |--------------------------2------2-----|
A |--------------------------2------2-----|
E |----0---------------------0------0-----|
       Hacia el cielo...


CORO...
 A                                   Bmd   F#           E
Niña no sabes como gasto el tiempo en ti   (no sabes como gasto el tiempo)

Bmd                                          E             E2
Sabes podría torturarme lentamente si eso te hace feliz....

INTRO... *
A                                          Bmd        F#    F#   E
Sabes amar sabes besar y cada beso te amo mas...

A                                        Bmd        F#      F#   E
Y se que tu me amaras como te amo en verdad....

Bmd                                        E
Cuando me ames así yo estaré mas adelante y...

Bmd                                         E      E2   E     E2
Tendría que inventar palabras para describirlo...


CORO
A                                     Bmd  F#         E
Niña no sabes como gasto el tiempo en ti    (no sabes como gasto el tiempo)

Bmd                                    E
Sabes podría torturarme lentamente si eso te hace feliz....

A                             Bmd   F#
Niña toda mi alegría esta en ti...

Bmd                                        E
Sabes podría inventarte mil canciones para que me ames así...


INTRO
e |--------------------------------0-----|
B |----------------0----2----------------|
G |------------2----------------2--------|
D |--------2------------------2----------|
A |----0--------------------4------------|
E |--------------------------------------|


e |-----------------2-----------------------0----0-|
B |------------2------2---------------------0----0-|
G |--------2-------------------------1------1----2-|
D |-----4--------------------------2--------2----2-|(x2)
A |-----------------------------------------2----2-|
E |------------------------------0----------0----0-|

e |--------------------------------0-----|
B |----------------0----2----------------|
G |------------2----------------2--------|
D |--------2------------------2----------|
A |----0--------------------4------------|
E |--------------------------------------|

e |-----------------2-----------------------0----0---0--|
B |------------2------2---------------------0----0---2--|
G |--------2-------------------------1------1----2---2--|
D |-----4--------------------------2--------2----2---2--|
A |-----------------------------------------2----2---0--|
E |------------------------------0----------0----0---0--|


       Bmd
e |-----2-----|
B |-----2-----|
G |-----2-----|
D |-----4-----|
A |-----2-----|
E |-----2-----|

Bueno eso es todo...
Solo escuchen la rola para que encuentren bien los ritmos...
Si en ves del Bmd quieren tocar un D se escucha también chido...
pero si lo hacen... solo en la segunda estrofa ok...
comentarios en (ioriyagami_14_@ Ojala les lata...

... =(
Dedicada para todos aquellos que quieren a alguien...
Y tienen miedo de arriesgarse...
O enamorarse...

            
            
Suggest correction
Creating personal tab
Creating personal tab
You can edit any tab online and save it as your Personal.

You can edit, replace or remove any tab part or add personal notes – all changes will be seen only by you.

Personal tabs can be accessed anytime from any device, even offline.
Learn more »
Give kudos to tab author, rate the tab!
1 2 3 4 5
comments
print report bad tab
guest
Wanna post a correction for this tab? Suggest correction