Oops, an error
Loading. Please wait.

Niña tab

version 2
version 2

Whole song

19 views 1 this week
no commentswrite comment
1 2 3 4 5
3 more votes to show rating
add to favorites
×
Save as Personal and add changes to this tab that will be seen only by you. Learn more ›
×
You can save this tab as Personal to edit and correct it or add notes. All changes will be seen only by you. Learn more »
launch autoscroll
font size
0
reset
how to read this tab
guitar tuner
edit
Autoscroll
slow
fast
+/-
esc
set tempo
stop
BUENO, PUES AQUI LES DEJO ESTA HERMOSA CANCION QUE VA DEDICADA
PARA UNA CHAVA ESPECIAL, ES MI PRIMERA TRANSCIPCION, ASI QUE NO
ESTOY MUY SEGURO, PERO SE OYE BIEN Y ESPERO QUE LES GUSTE. TE
AMO NENITA HERMOSA.

INTRO:
E--------------2-----0-----0---
A-0------4-----------------2---
D--2------6-----4-----2----2---   ( X 2 )   E   ( 3 RASGUEOS )
G---2------6-----2-----1---1---
B----0-2----5------2-------0---
e-----------------2--------0---

E------------------------------
A-0-----0-----0-----0----------
D--2-----2-----2-----2---------
G---2-----2-----2-----2--------
B----0-----2-----0-----2-------
e------------------------------

VERSOS:
E----------------------------------------2----
A-0------0------0--------------0----0---------
D--2------2------2--------------2----2-----4--
G---2------2------2--------------2----2-----2-
B----0------2------0--------------0----2-----2  Bm Fm Bm-E
e---------------------------------------------
Mi ansiedad me matará si no te veo un día mas

E---------------------------------------2-----
A-0------0------0--------------0----0---------
D--2------2------2--------------2----2----4---
G---2------2------2--------------2----2----2--
B----0------2------0--------------0----2----2-  Bm Fm Bm-E
e---------------------------------------------
mi corazon estallara si no te beso una vez mas

PRECORO:
E-----------------------------0-------------0----
A-0-------------0--------------------------------
D--------------------------------------------2---
G--2----------2--2----------1--1-----------1--1--
B---2-------------2-------------0--------------0-
e----0-------------0-------------0---------------
me siento muerto dos segundos antes de mirarte y,

E-------------------------------0------------0----
A--4--------------4-------------------------------
D6--6-----------6--6------------------------------
G----6--------------6---------1--1------------1---
B-----5--------------5------------0------------0--
e----------------------------------0-----------0--
segundos despues siento que me elevo hacia el cielo...

CORO:

A         C#m                             F#m
niña...no sabes como gasto el tiempo en ti...

F#m            Bm               F#m           Bm           E
(no sabes como gasto el tiempo, no sabes como gasto el tiempo)

A       E                      Bm          E
sabes...podria torturarme lentamemte, si eso te hace feliz...

E-----------------2---------0-----0------------
A--0-------4----------------------2------------
D---2-------6------4---------2----2------------
G----2-------6------2---------1---1------------
B-----0-2-----5--------2----------0------------
e--------------------2------------0------------

E------------------2---------------0-----------
A--0--------4----------------------2-----------
D---2--------6-------4-------------2-----------
G----2--------6-------2------------1-----------
B-----0-2------5---------2---------0-----------
e----------------------2-----------0-----------

VERSO:
A            C#m                               F#m Bm F#m Bm-E
Sabes besar, sabes amar y cada beso te amo mas,
A            C#m                               F#m Bm F#m Bm-E
y se que tú. me amarás como te amo yo en verdad

PRECORO:
A                   E
Cuando me ames así, yo estaré mas adelante, y
C#m                          E
tendría que inventar palabras para describirlo

CORO:
A          C#m                                 F#m Bm F#m Bm-E
Niña... no sabes como gasto el tiempo en ti
A           E               Bm           E
sabes... podría torturarme lentamente si eso te hace feliz
A          C#m                                 F#m Bm F#m Bm-E
niña... toda mi alegría está en ti
A           E               Bm           E
sabes... podría inventarte mil canciones si eso te hace feliz


E-----------------2-----0------0----------------
A--0-------4-------------------2----------------
D---2-------6------4-----2-----2----------------
G----2-------6------2-----1----1----------------
B-----0-2-----5--------2-------0----------------
e--------------------2---------0----------------

E-------------------2----------0----------------
A--0--------4------------------2----------------
D---2--------6-------4---------2----------------
G----2--------6-------2--------1----------------
B-----0-2------5---------2-----0----------------
e----------------------2-------0----------------


( RASGUEADO )     E  A


GRACIAS POR TODO.

ESPERO QUE HAYA QUEDADO BIEN, TE AMO SUKAINA!!!

            
            
Suggest correction
Creating personal tab
Creating personal tab
You can edit any tab online and save it as your Personal.

You can edit, replace or remove any tab part or add personal notes – all changes will be seen only by you.

Personal tabs can be accessed anytime from any device, even offline.
Learn more »
Give kudos to tab author, rate the tab!
1 2 3 4 5
comments
print report bad tab
guest
Wanna post a correction for this tab? Suggest correction