Oops, an error
Loading. Please wait.

Pensé Que Estaba Bien tab

version 1
version 1

Whole song

Interactive

52 views 1 this week
no commentswrite comment
1 2 3 4 5
3 more votes to show rating
add to favorites
×
Save as Personal and add changes to this tab that will be seen only by you. Learn more ›
×
You can save this tab as Personal to edit and correct it or add notes. All changes will be seen only by you. Learn more »
launch autoscroll
font size
0
reset
how to read this tab
guitar tuner
edit
Autoscroll
slow
fast
+/-
esc
set tempo
stop
sii tienen alguna duda agreguenmee
i si kieren ver komo se toka esta partitura
vean el video el youtube:
poyo segovia - pense que estaba bien cover


ACORDES

    E5   B5   C#   G#   A5   E    B    C#m  A    Am
E----------------------------0----2----4----0----0--
B---7------------------------0----4----5----3----1--
G---9----7----9----4----5----1----4----6----3----2--
D---9----9----11---6----7----2----4----6----3----2--
A---7----9----11---6----7----2----2----4----0----0--
E--------7----9----4----5----0----2----4----0----0--

          E5           B5
 Dices que hoy queda grabado

       C#          B5           E5
 en la pared en la pared de los recuerdos

     B5            C#          B5
 los recuerdos que vivimos que vivimos

         E5           B5
 los dos juntos y que juntos
E------------------7---------
B-------------5------------5-
G--------9-------------9-----

      C#          B5             E5
 destrozamos destrozamos nuestras vidas
E-7--------------7--------------7------
B-----------5--------------5-----------
G------9--------------9--------------9-

          B5          C#            B5
 nuestras vidas por clavarnos por clavarnos
E------7--------------7--------------7-----
B-5--------------5--------------5----------
G-----------9--------------9---------------

       E5           B5       C#
 uno al otro uno al otro nos teniamos
E---------7-----------7---------7----
B-----5-----------5----------5-------
G-9-----------9-----------9--------9-

  B5      E5        B5        C#      B5
 teniamos todo todo ahora se borro
E-----7-------7--------7--------7--------7-
B--5-------5--------5--------5--------5----
G-------9--------9--------9--------9-------


G#        A5
 uooooooh-ooooooh

C#     B5
¿donde quedo lo demás?

G#        A5
 uooooooh-ooooooh

C#       B5
 todo lo que ibas a dar

G#        A5
 uooooooh-ooooooh

 C#         B5           G#
 me dejas a medias y si a medias

                    A5
 yo te escribo esta canción esta canción

       B5
 diría perdón perdón por lo que no hice yo...


  E5 B5  C# B5 E5 B5 C# B5
E---------------------------
B-5--10--9--7--5--10--9--7--
G---------------------------


   E5             B5             C#
 La vida me ha enseñado me ha enseñado

             B5             E5
 que aun con golpes aun con golpes

    B5         C#        B5       E5
 se aprende se aprende a seguir a seguir

        B5            C#           B5
 hacia adelante hacia adelante aun sin ti

      E5            B5           C#
 y sin ti yo se que puedo se que puedo

 B5      E5      B5        C#      B5
 vivir y vivir sonriendo sonriendo seguir

        E5      B5        C#             B5
 seguir por mi camino mi camino hacia el fin

          E5              B5              C#
 hacia el fin o hasta encontrar hasta encontrar

          B5      E5             B5
 un nuevo amor un amor con quien contar

          C#               B5
 con quien contar  en esta vida


  G#        A5
   uooooooh-ooooooh
E--------------------
B--4--------5--------

  C#     B5
  ¿donde quedo lo demás?
E---------------------
B--10-------9---------

  G#        A5
   uooooooh-ooooooh
E--------------------
B--4--------5--------

   C#       B5
   tantas promesas y mas
E-----------------------
B--10--------9----------

  G#        A5
   uooooooh-ooooooh
E------------------
B--4--------5------

  C#         B5       G#
   mentiras, abusos, engaños y aun así
E------------------------------------
B--10---------9-------4--------------

        A5              B5
  estoy aquí pidiendo perdón
E---------------------------
B--------5--------------12--

  E
  ¿donde esta mi error? si mi error no fue quererte
E-----------------------------------------------------
B--5-------------5-------------5-------------5------7-
G---------8-------------8-------------8---------------

         C#m                           B
   yo te quise hasta el final y hoy un recuerdo serás
E-----------------------------------------------------
B--------5-----------5-----------5-----------5-----7--
G--8-----------8-----------8-----------8--------------

            E
   mi error fue tal vez cambiarte y pensar que estaba bien
E------------------------------------------------------------
B---------5-------------5-------------5-------------5------7-
G--8-------------8-------------8-------------8---------------

      C#m                           B                          A
   no pensé que iba a cansarte pretender ser quien no eres para mi
E-----------------------------------------------------------------
B--------5-----------5-----------5-----------5-----7-----------5--
G--8-----------8-----------8-----------8-----------------8--------

              hoy  te  pido  perdón  yo
E------------------------------------------
B--------5-----------5-----------5-----7---
G--8-----------8-----------8---------------

          B
   A      ti                                     wuoooo
E-----------------------------------------------------
B--------5-----------5-----------5-----------5-----7--
G--8-----------8-----------8-----------8--------------

        E
  uooooooooooo                                   wuoooo
E-----------------------------------------------------
B--------5-----------5-----------5-----------5-----7--
G--8-----------8-----------8-----------8--------------

        A
   uooooooooooo
E-----------------------------------------------------
B--------5-----------5-----------5-----------5-----7--
G--8-----------8-----------8-----------8--------------

        C#m
E-----------------------------------------------------
B--------5-----------5-----------5-----------5-----7--
G--8-----------8-----------8-----------8--------------

        B
E-----------------------------------------------------
B--------5-----------5-----------5-----------5-----7--
G--8-----------8-----------8-----------8--------------

        E
E-----------------------------------------------------
B--------5-----------5-----------5-----------5-----7--
G--8-----------8-----------8-----------8--------------

        A
E-----------------------------------------------------
B--------5-----------5-----------5-----------5-----7--
G--8-----------8-----------8-----------8--------------

       C#m
E-----------------------------------------------------
B--------5-----------5-----------5-----------5-----7--
G--8-----------8-----------8-----------8--------------

        B
E-----------------------------------------------------
B--------5-----------5-----------5-----------5-----7--
G--8-----------8-----------8-----------8--------------

        A                      Am
E-----------------------------------------------------
B--------5-----------5-----------5-----------5-----7--
G--8-----------8-----------8-----------8--------------

        B                        E
E-----------------------------------
B--------9-----7-----5-----------5--
G--8-----------------------8--------

                  A            Am    E
E---------------------------------------
B-----10---9---7-------5---5------------
G------------------8--------------------

POYO RIFA

            
            
Suggest correction
Creating personal tab
Creating personal tab
You can edit any tab online and save it as your Personal.

You can edit, replace or remove any tab part or add personal notes – all changes will be seen only by you.

Personal tabs can be accessed anytime from any device, even offline.
Learn more »
Give kudos to tab author, rate the tab!
1 2 3 4 5
comments
print report bad tab
guest
Wanna post a correction for this tab? Suggest correction