Oops, an error
Loading. Please wait.

Que Más Da tab

version 1
version 1

Whole song

7 views 1 this week
no commentswrite comment
1 2 3 4 5
3 more votes to show rating
add to favorites
×
Save as Personal and add changes to this tab that will be seen only by you. Learn more ›
×
You can save this tab as Personal to edit and correct it or add notes. All changes will be seen only by you. Learn more »
launch autoscroll
font size
0
reset
how to read this tab
guitar tuner
edit
Autoscroll
slow
fast
+/-
esc
set tempo
stop
Aqui le pongo las correcciones de acordes y tiempos porque
no son los que van,lo pueden tocar con los acordes normales pero
para que suene mejor todos los tonos son cegilla
apartir del 5° traste


el punteo q va jaja promesas son preomesas jojojo


          A                    C#m
1----------------------------------------------------------------|
2--------2------------3--2--0---------5-----------7--5--4--------|
3-----2------2-----2---------------6-----6-----6-----------------|
4---------------2---------------------------6--------------------|
5--0---------------------------4---------------------------------|
6----------------------------------------------------------------|

   F#m                      E

1-----------------------------------------------------------|
2--------2--------3--2--0--------0-----------3--2--0--------|
3-----2-----2-----------------1-----1-----1-----------------|
4--------------4-----------------------2--------------------|  x 3
5-----------------------------------------------------------|
6--2-----------------------0--------------------------------|


a la segunda vuelta del intro entra la guitarra


A  C#m  F#m  E x 2


           A                 C#m
un dia despiertas y sientes que alguien ya no esta,
            F#m           E
te sientes solo, no keda ya mas que llorar,
             A                   C#m
pues ya no existe, mas que el recuerdo y la ansiedad,
       F#m                        E
te perturban sus recuerdos ya no puedes caminar,
        A                         C#m                     F#m
que tu pierna ya no esta, que tu mano no funciona como antes,
     E
un amigo ya sevaaaaaaah


se toca el punteo una ves con los acordes


          A                    C#m
1----------------------------------------------------------------|
2--------2------------3--2--0---------5-----------7--5--4--------|
3-----2------2-----2---------------6-----6-----6-----------------|
4---------------2---------------------------6--------------------|
5--0---------------------------4---------------------------------|
6----------------------------------------------------------------|

   F#m                      E

1-----------------------------------------------------------|
2--------2--------3--2--0--------0-----------3--2--0--------|
3-----2-----2-----------------1-----1-----1-----------------|
4--------------4-----------------------2--------------------|
5-----------------------------------------------------------|
6--2-----------------------0--------------------------------|


A  C#m  F#m  E


         A             C#m
talves exista, muchos rumbos que tomar,
         F#m                    E
pero ninguno se asemeja con el que fui a caminar,
        A                C#m
solo recuerdo todas las cosas de ayer,
          F#m                   E
talvez mañana ya te olvide o mañana no estare

precoro

      Bm                   F#m
solo keda (solo queda) rekordar
       Bm                    F#m      E
solo keda (solo queda) lagrimaaaaaaaaaaaaaas


coro


         A                   C#m
que mas da (que mas da) un amigo ya no estaaaaaa
         F#m                    D       Dm        A
que mas da (que mas da) ahora kien me akompañaraaaaa
                     C#m
(que mas da) si un amigo ya no esta
         F#m                      D      Dm        E
que mas da (que mas da) solo tendre que continuaaaaar

que mas da

A  C#m  F#m  D  Dm

            A               C#m
mil y un palabras, no te pudieron recordar,
         F#m                   E
y nunka nadie ya podra reemplazar tu lugar,
         A          C#m
hiciste mucho orgulloso has de estar
          F#m                  E
en mi tienes un amigo que siempre te recordara

precoro

      Bm                   F#m
solo keda (solo queda) rekordar
      Bm                     F#m      E
solo keda (solo queda) lagrimaaaaaaaaaaaaaas

coro


         A                   C#m
que mas da (que mas da) un amigo ya no estaaaaaa
         F#m                    D       Dm        A
que mas da (que mas da) ahora kien me akompañaraaaaa
                     C#m
(que mas da) si un amigo ya no esta
         F#m                      D      Dm        E
que mas da (que mas da) solo tendre que continuaaaaar

que mas da

A  C#m  F#m  D*  Dm* E A

como habram notado habian muxas fallas jeje pero ya estan corregidas
es todo alterminar la rola puse en D y Dm un * esto quere decir
que se tocan en el 11° traste y los otros D y Dm en el 6° traste...

good luck!!!!

            
            
Suggest correction
Creating personal tab
Creating personal tab
You can edit any tab online and save it as your Personal.

You can edit, replace or remove any tab part or add personal notes – all changes will be seen only by you.

Personal tabs can be accessed anytime from any device, even offline.
Learn more »
Give kudos to tab author, rate the tab!
1 2 3 4 5
comments
print report bad tab
guest
Wanna post a correction for this tab? Suggest correction