Oops, an error
Loading. Please wait.

Quédate Un Momento tab

32 views 1 this week
no commentswrite comment
1 2 3 4 5
3 more votes to show rating
add to favorites
×
Save as Personal and add changes to this tab that will be seen only by you. Learn more ›
×
You can save this tab as Personal to edit and correct it or add notes. All changes will be seen only by you. Learn more »
launch autoscroll
font size
0
reset
how to read this tab
guitar tuner
edit
Autoscroll
slow
fast
+/-
esc
set tempo
stop
Sale les dejo aki la tab del principio y el final
de esta cancion. va:
Intro: Los acordes son los mismos que la cancion
solo escuchen.
e|-----------------------|----------------------------------0-|
B|-----------------------|--0-5-7-7/8--7-5~-----------------0-|
G|------4----------------|-------------------5-4~~----------1-|
D|-4/6-----2/4-2~--4/6-6-|-------------------------2/4-4/6--2-|
A|-----------------------|----------------------------------2-|
E|-----------------------|----------------------------------0-|

e|-----------------------|------------------------------------|
B|-----------------------|--0-5-7-7/8--7-5~--0-5-7-7/8--7-5~--|
G|------4----------------|------------------------------------|
D|-4/6-----2/4-2~--4/6-6-|------------------------------------|
A|-----------------------|------------------------------------|
E|-----------------------|------------------------------------|

e|------7--7-7-9-9/11-9-7--------------|
B|-5~~---------------------5/7-7/9~----|
G|-------------------------------------|
D|-------------------------------------|
A|-------------------------------------|
E|-------------------------------------|

                G#m
Quedate un momento
A                          E
escucha lo que tengo que decir
                  G#m
tomate todo el tiempo
A
para pensar que ya
            Am
no tienes otra opcion
       B
que empezar dame tu amor
A                    B
y si no lo quieres asi
G#m
sera inevitable vivir
             A
para mi sin ti
       Am               B
por favor dame tu corazon
te prometo darle amor

E                    G#m
si tu me lo pides me quedo
A                     B
yo jamas te haria llorar
E                       G#m
y si tu no quieres lo intento
A                          Am
porque tu sabes que eres para mi
      B
y no voy a dejarte ir

E                  G#m
sabes bien que no miento
A                         E
contigo yo jamaz podria jugar
                       G#m
siente bien lo que siento
A
te aseguro que nadie
Am                      B
podra igualar lo que siento por ti jamas
A                     B
y si tu me dices que si
               G#m
creeme seria feliz
               A
moriria justo ahi
   Am                      B
mirame estoy muriendo de pie
por tiiiii

E                     G#m
si tu me lo pides me quedo
A                     B
yo jamas te haria llorar
E                       G#m
y si tu no quieres lo intento
A                          Am
porque tu sabes que eres para mi
      B
y no voy a dejarte ir

F#                   A#m
si tu me lo pides me quedo
B                     C#
yo jamas te haria llorar
F#                      A#m
y si tu no quieres lo intento
B                         Bm
porque tu sabes que eres para mi
      C#
y no voy a dejarte ir

Esto es lo que haria el piano:
e|-2---2---2---2---2-2-4---1---1---1----1-2-----|
B|-2---2---2---2---2-----2-2-----2----------(2)-|
G|-3-3---3---3---3---------3-3-------3----------|
D|-4-----------------------3--------------------|
A|-4-----------------------1--------------------|
E|-2-----------------------1--------------------|

e|-2---2---2---2---4-2-----2---2---2---2-4---|
B|-4-4---4---4---4-----(4)-3-----3-----------|
G|-4-----------------------4-4-------4-------|
D|-4-----------------------4-----------------|
A|-2-----------------------2-----------------|
E|-2-----------------------2-----------------|

e|-4----4---4---4---4---4---4---6-4-----2--|
B|-6----------6-6---6-------6-------6---2--|
G|-6--6---6-------6---6---6---6-------6-3--|
D|-6------------------------------------4--|
A|--------------------------------------4--|
E|--------------------------------------2--|

Sale chavos ojala les guste

            
            
Suggest correction
Creating personal tab
Creating personal tab
You can edit any tab online and save it as your Personal.

You can edit, replace or remove any tab part or add personal notes – all changes will be seen only by you.

Personal tabs can be accessed anytime from any device, even offline.
Learn more »
Give kudos to tab author, rate the tab!
1 2 3 4 5
comments
print report bad tab
guest
Wanna post a correction for this tab? Suggest correction