Oops, an error
Loading. Please wait.

Vagabundo De Corazón Profundo tab

22 views 1 this week
no commentswrite comment
1 2 3 4 5
3 more votes to show rating
add to favorites
×
Save as Personal and add changes to this tab that will be seen only by you. Learn more ›
×
You can save this tab as Personal to edit and correct it or add notes. All changes will be seen only by you. Learn more »
launch autoscroll
font size
0
reset
how to read this tab
guitar tuner
edit
Autoscroll
slow
fast
+/-
esc
set tempo
stop
Que tal...

Les dejo esta transcripción 100% correcta con el solo.
La versión anterior tenía mal algunos acordes.

Aconsejo tocar estas notas, ya que así la canción
suena exacta.

Notas:
       EADGBe
Dm     x57765
C7     x35353


Verso 1:
Dm                Gm
No.. No digas que no
       A#                  A
en el juego del amor solo soy un perdedor
Dm         Gm
Vagabundo soy,
          A#                    A
corro el mundo del amor solo y sin preocupación
         D7                 Gm
no me importa abandonar corazones sin amar
       C7                      F
yo lo que quiero es jugar a sentir y escapar
        D7        Gm
no me pruebes herida resultaras
       A#m
no lo intentes de verdad
      Gm                   C7
soy veneno y puedo hasta matar
                F
no te acerques más!!

Coro:
      Dm
No me hace sentir mal,
     Gm
el saber que quieres más
        C7
que un amor de mi esperabas
      F
yo solo quería probar,
         A#
solo un poco de tu piel
    A#m
y jamás volverte a ver
      Gm
es mi forma de querer
        C7
tienes que vivir con el
      Dm
recuérdame si gustas
     Gm
para mi fuiste una mas,
     C7
seguiré con mi camino
          F
a nadie tienes que probar
         A#
que yo estuve entre tu piel
     A#m
y además te hice ver
       Gm
mil estrellas y aun de día
       C7
de eso tu sabrás que hacer...

Solo:
   Dm             Gm          A#                   A   Dm
e|---------------------------------------------------
B|---------------------------------------------------
G|---------------------------------------------------
D|-------5-7-5h7p5---5--7/8-8-8-8-7-8-10-8-8-8-7h8-7-
A|-5-7-8-----------8---------------------------------
E|---------------------------------------------------
               Gm          A#                   A
e|------------------------------------------------
B|------------------------------------------------
G|------------------------------------------------
D|---------5-7----5--7/8-8-8-8-7-8-10-8-8-8-7h8-7-
A|-5-5-7-8------8---------------------------------
E|------------------------------------------------
                           D7
e|----------------------------------------
B|----------------------------------------
G|----------------------------------------
D|-7h8p7-5h7p5-3h5p3-2h3p2----------------
A|-------------------------5--5-7-8-5-7-8-
E|----------------------------------------
          Gm         C7              F
e|----------------------------------------------
B|----------------------------------------------
G|----------------------------------------------
D|-5---5-7-8-7-5---5--8-7h8p7-5---5--10-8-8-7-7-
A|---8-----------8--------------8---------------
E|----------------------------------------------
       D7
e|------------------------------------
B|------------------------------------
G|------------------------------------
D|-7-8-10-7-8-10--7-8--7-8-10-7-8-10--
A|------------------------------------
E|------------------------------------
       Gm                          C7
e|------------------------------------------------
B|------------------11-10-11-10-11/13-13-13-13-13-
G|-7-9-10-9-7-9-10--------------------------------
D|------------------------------------------------
A|------------------------------------------------
E|------------------------------------------------
   Gm x8
   C7 x8
e|-13-0-0-12-0-0-10-0-0-12-0-0-
B|-----------------------------   x4
G|-----------------------------
   A# x4 C7 x4
e|-17----18-
B|-18----20-  (Se toca rápido)
G|------------

Verso 2:
No, no digas que no
que en el juego del amor
sigo siendo un perdedor
vagabundo soy y fuiste una presa mas
de mi grande colección
temes no saber de amor
y olvidar lo que paso
soy como un fugaz dolor
que de pronto se extinguió
tienes que encontrar amor en alguien más
porque en mi no lo hallaras
créeme no te quiero hacer llorar
voy por alguien más!

Coro:
No me haces sentir mal,
el saber que quieres más
que un amor de mi esperabas
yo solo quería
probar, solo un poco de tu piel
y jamás volverte a ver
es mi forma de querer
tienes que vivir con el
fue una noche nada mas
borrachera y algo mas
el alcohol me hizo quererte
ya te puedes retirar
no preguntes nada ya,
de esto y mas yo soy capaz
esto juego no me cansa
cada vez me gusta más!!!

            
            
Suggest correction
Creating personal tab
Creating personal tab
You can edit any tab online and save it as your Personal.

You can edit, replace or remove any tab part or add personal notes – all changes will be seen only by you.

Personal tabs can be accessed anytime from any device, even offline.
Learn more »
Give kudos to tab author, rate the tab!
1 2 3 4 5
comments
print report bad tab
guest
Wanna post a correction for this tab? Suggest correction