Oops, an error
Loading. Please wait.

Para Tí tab

5 views 1 this week
no commentswrite comment
1 2 3 4 5
3 more votes to show rating
add to favorites
×
Save as Personal and add changes to this tab that will be seen only by you. Learn more ›
×
You can save this tab as Personal to edit and correct it or add notes. All changes will be seen only by you. Learn more »
launch autoscroll
font size
0
reset
how to read this tab
guitar tuner
edit
Autoscroll
slow
fast
+/-
esc
set tempo
stop
INTRO (x2)
     G       C       F       C         G       C       F       G
E|-----------------------------------|-----------------------------|
B|-----------------------------------|-----------------------------|
G|-----------------------------------|-----------------------------|
D|-----------------------------------|-----------------------------|
A|---------2/3--X----------2-3-3-2-0-|-------2/3--X----------------|
E|---3--X----------3/1--X------------|-3--X----------3/1-3/5-1/3---|


      G            C
Me levanto, me despeino
             F            C
me hago un guiño en el espejo
          G              C          F
ya estoy listo estoy perfecto para ti.

           G               C
Entro en clase y veo a lo lejos
       F            C
tu sonrisa incandescente
       G            C         F
sólo quiero que sonrías para mí.

Am              F
   Aprendí a tocar la guitarra
        C                     G
y a cantar tu canción de Lou Reed
Am               F
   me colgué de tu ventana
      C             G
sólo para verte dormir...


ESTRIBILLO
      G        C
Para ti, para ti
       F             C
lo que hago es para ti
      G        C        F
para ti, para ti, para ti
          G          C
y es por ti, es por ti
      F           C
cada paso es por ti
        G          C          F
es por ti, es por ti, es por ti.


INTRO (x1)


(Como en la primera estrofa)
No me valen tus reproches
quiero ver qué es lo que escondes
sé que es algo que te guardas para ti

Déjame que te enamore
no seas tonta, no te cortes
no creo que sea tan difícil darme un sí.

Aprendí inglés con mil palabras
traduciendo canciones de Queen
que te escribo en millones de cartas
de esas que no te dignas ni a abrir.

ESTRIBILLO
Para ti, para ti
lo que hago es para ti
para ti, para ti, para ti
y es por ti, es por ti
cada paso es por ti
es por ti, es por ti, es por ti.


A#, F, C, G, A#, F, G


SOLO
     A#                  F          C       G                    A#
E|--------------------------------------------------------------------|
B|--------------------------------------------------------------------|
G|-------11-12-11---------------------------------11-12-11------------|
D|---14-----------14-12-14--12--------------12-14----------14-12-14---|
A|-------------------------------14-15-14-----------------------------|
E|--------------------------------------------------------------------|

                     F                   C          G
E|------------------------------------------------------|
B|--------------------------------------13---13-14-15---|
G|---11-12-11------------11-12-11-----------------------|
D|------------14-12-14------------14-12-----------------|
A|------------------------------------------------------|
E|------------------------------------------------------|


(Estribillo)
Para ti, para ti
lo que hago es para ti
para ti, para ti, para ti
y es por ti, es por ti
cada paso es por ti
es por ti, es por ti, es por ti.


(Estribillo)
Para ti, para ti
lo que hago es para ti
para ti, para ti, para ti
y es por ti, es por ti
cada paso es por ti
es por ti, es por ti, es por ti.


INTRO (x1)
Suggest correction
Creating personal tab
Creating personal tab
You can edit any tab online and save it as your Personal.

You can edit, replace or remove any tab part or add personal notes – all changes will be seen only by you.

Personal tabs can be accessed anytime from any device, even offline.
Learn more »
Give kudos to tab author, rate the tab!
1 2 3 4 5
comments
print report bad tab
guest
Wanna post a correction for this tab? Suggest correction