Oops, an error
Loading. Please wait.

Como Las Piedras tab

62 views 1 this week
no commentswrite comment
1 2 3 4 5
3 more votes to show rating
add to favorites
×
Save as Personal and add changes to this tab that will be seen only by you. Learn more ›
×
You can save this tab as Personal to edit and correct it or add notes. All changes will be seen only by you. Learn more »
launch autoscroll
font size
0
reset
how to read this tab
guitar tuner
edit
Autoscroll
slow
fast
+/-
esc
set tempo
stop
 He aqui el 1er tema del disco: "Orquesta Oculta"!


 ACORDES:

  E  1-G  -3-  2-G/F# -3-  3-Em -0- 4-G/f#2 -0  (El último acorde
  B       -3-         -3-       -0-         -3   no sé cual es, asi
  G       -0-         -2-       -0-         -2   que, le llamaremos:
  D       -0-         -0-       -2-         -0   G/f#2)
  A       -2-         -0-       -2-         -0
  E       -3-         -2-       -0-         -2


 Esos son los 4 acordes de toda la canción.

 El arpegio va así:

 -----3---3-------3---3-----------0---0------------------0-----------
 -----3---3-------3---3-----------0---0------------3--------3-----0--
 -----0---0-------2---2-----------0---0---------2-----2--------2-----
 ---0-----------0---------------2------------------------------------
 --------------------------------------------------------------------
 -3-------3---2-------2-------0-------0-------2----------------------


 La canción tiene algunas variaciones en el arpegio pero, básicamente,
 se repite el mismo arpegio toda la canción excepto en la estrofa
 final que va con un rasgueo con las mismas notas...


 ARPEGIO: (INTRO) 2X


    SI peeeertenezco A este lugaaar...                Es porque bailo,

 -----3---3-------3---3-----------0---0------------------0-----------
 -----3---3-------3---3-----------0---0------------3--------3-----0--
 -----0---0-------2---2-----------0---0---------2-----2--------2-----
 ---0-----------0---------------2------------------------------------
 --------------------------------------------------------------------
 -3-------3---2-------2-------0-------0-------2----------------------


  bailo...              en éeel...

 -----3---3-------3---3-----------0---0------------------0-----------
 -----3---3-------3---3-----------0---0------------3--------3-----0--
 -----0---0-------2---2-----------0---0---------2-----2--------2-----
 ---0-----------0---------------2------------------------------------
 --------------------------------------------------------------------
 -3-------3---2-------2-------0-------0-------2----------------------


  Y si ese árbol me veeee...                           Es porque me...

 -----3---3-------3---3-----------0---0------------------0-----------
 -----3---3-------3---3-----------0---0------------3--------3-----0--
 -----0---0-------2---2-----------0---0---------2-----2--------2-----
 ---0-----------0---------------2------------------------------------
 --------------------------------------------------------------------
 -3-------3---2-------2-------0-------0-------2----------------------


  veo, me veooo...       en él...

 -----3---3-------3---3-----------0---0------------------0-----------
 -----3---3-------3---3-----------0---0------------3--------3-----0--
 -----0---0-------2---2-----------0---0---------2-----2--------2-----
 ---0-----------0---------------2------------------------------------
 --------------------------------------------------------------------
 -3-------3---2-------2-------0-------0-------2----------------------


  Miro las piedraaas... Que pertenecen al volcán...

  Y creo que sooooy como las piedraaas... Diluido, ido... En el mundo...

  Y aunque cambie de pieeel... Siempre guardo, guardo... Algoooo...

  Y aunque cambie de pieeel... Siempre guardooooooooo... Algoooo...


  Si pertenezco a este lugaaar... Es porque te veeeo, te veo... En él...

  Y si eeese árbol meee veeeee... Es porque me veooo, me veo... En él...

  Sooooy como las piedraaaaaas... Diluidooo, idooooooo, en el mundooo...


  RASGUEO: (PARTE FINAL)

         G              G/F#   Em   G/F#2

  Quiero estar en tus oí-íidooos...

         G              G/F#   Em   G/F#2

  Quiero entrar en tus lati-iidooos...

         G   G/F#  Em  G/F#2

  En tu coráaaazoooon...      x6


 Espero que les haya gustado mi versión del tema!

 AGUANTE LA MÚSICA CHILENA!!!

.:MaTTuM:.

            
            
Suggest correction
Creating personal tab
Creating personal tab
You can edit any tab online and save it as your Personal.

You can edit, replace or remove any tab part or add personal notes – all changes will be seen only by you.

Personal tabs can be accessed anytime from any device, even offline.
Learn more »
Give kudos to tab author, rate the tab!
1 2 3 4 5
comments
print report bad tab
guest
Wanna post a correction for this tab? Suggest correction