Oops, an error
Loading. Please wait.

Invéntame Un Final chords

1,432 views 3 this week
no commentswrite comment
1 2 3 4 5
1 last vote to show rating
add to favorites
×
Save as Personal and add changes to this tab that will be seen only by you. Learn more ›
×
You can save this tab as Personal to edit and correct it or add notes. All changes will be seen only by you. Learn more »
launch autoscroll
font size
0
reset
transpose
0
reset
simplify chords
display chords
guitar tuner
edit
Autoscroll
slow
fast
+/-
esc
set tempo
stop
Strumming
There is no strumming pattern for this song yet. and get +5 IQ
Sugerencias:
- Capodastro o cejilla en la 7ma casilla (:

Intro :
G6 - Am - D/F# - Em - C - Bm - Am
C - Bm - Am

G6               Am
cuídame esta noche,
D/F#              Em
tengo miedo de perderme,
C        Bm           Am
tu vestido es mi sonrisa,
C       Bm            Am
me ahuyenta los delirios.

G6            Am
Bésame despacito,
D/F#                    Em
esta fiebre no es una escusa
C       Bm        Am
para tenerte cerquita,
C       Bm           Am
esta noche para quererte más.

(Intermedio)*recuerden que tiene cejillo (:

e-----------------------------------------------------------------
b----------3--3----5--5---8--8---12---12---12---12--10--10--10-10-
g--4---4---0-0--0----0--0---0--0----0----0----0----0---0---0--0---
d--0-0---0--------------------------------------------------------
a----------3--3----5--5---7--7---10---10---10----10--9---9--9--9--
e--3---3----------------------------------------------------------

(Sigue el mismo patron que arriba)

Esta no es la forma en que
pensé declararte mi amor,
quise rubor y hacerme,
no me queda color.

G6              Am
Invéntame otro final
D/F#                    Em
de esta historia que acaba mal,
C        Bm           Am
como quisiera quedarme aquí,
C        Bm        Am
viendo girar tu vestido.


e-----------------------------------------------------------------
b----------3--3----5--5---8--8---12---12---12---12--10--10--10-10-
g--4---4---0-0--0----0--0---0--0----0----0----0----0---0---0--0---
d--0-0---0--------------------------------------------------------
a----------3--3----5--5---7--7---10---10---10----10--9---9--9--9--
e--3---3----------------------------------------------------------

Esta no es la forma en que pensé declararte mi amor.
Quise ruborizarme y no me queda color

Uhh!

////G6 - C-C/////

Am - G/D - G6


Acordes:
  G6
E x
B 3
G 4
D 0
A 2
E 3

  G/D
E 5
B 3
G 0
D 4
A 5
E x

Cualquier consulta, sugerencia, ayuda o peticion
msn o email kamihx7@ (:

            
            
Suggest correction
Creating personal tab
Creating personal tab
You can edit any tab online and save it as your Personal.

You can edit, replace or remove any tab part or add personal notes – all changes will be seen only by you.

Personal tabs can be accessed anytime from any device, even offline.
Learn more »
Give kudos to tab author, rate the tab!
1 2 3 4 5
comments
print report bad tab
guest
Wanna post a correction for this tab? Suggest correction