Oops, an error
Loading. Please wait.

Concepción tab

version 1
version 1

Whole song

35 views 1 this week
no commentswrite comment
1 2 3 4 5
3 more votes to show rating
add to favorites
×
Save as Personal and add changes to this tab that will be seen only by you. Learn more ›
×
You can save this tab as Personal to edit and correct it or add notes. All changes will be seen only by you. Learn more »
launch autoscroll
font size
0
reset
how to read this tab
guitar tuner
edit
Autoscroll
slow
fast
+/-
esc
set tempo
stop
Esta es la version , original , En los ragueos va la acustica haciendo las notas y 
la electrica haciendo la figura que anexo


Cuando una guitarra (Acustica) Hace Mim - Sol - Do - Lam , La otra (Electrica) hace

E-------------------------------
B------------------------------- 
G-------------------------------
D-------------------------0/2--- 
A------------------0-2-3--------
E--3-2-0----0-2-3--------------5 


Luego de esa aclaracion , Ahi les va.


Intro 

E--------------------------------------------------------------------
B--------------------------------------------------------------------
G--------------------------------------------------------------------
e-------------------------------------------------------------------- 
B----------8/10-10-8---8~-----10/12-12-10---10~10/12-12-10---10~10-10 
G4-4~7-9-9-----------7--------------------9----------------9--------- 


~ = Vibrato

     MIm
Am No estare descontinuando
          SOL
   no me habran desactivado
        DO                       LAm
   que no pueda caminar por concepcion.


Am Buscame en la costanera
   donde el yogui enseña rythm and blues
   y la mama de Alvaro da el Te

          SOL           FA#
Bm Concepcion, octava region
           LAm                    MI
   mi solucion, empieza en concepcion
   
Bm Santos Dumont, Tragico el aviador
   mi religion ,me en concepcion

Am El camino de salida 
   para los ojitos pichos
   no me ha sido revelado esta vez

Am Ni el misterio del sonido
   de guitarra amplificada
   por un arbol disfrazado de mujer

Bm Concepcion, octava region
   mi solucion,empieza en concepcion
   Santos Dumont, tragico el aviador
   mi religion se dice Concepciooooooon

    LA          MI
Cm Syd Barret, Vive ahi
    LA             SOL       FA#     FA          MIm
   Syd Barret, empieza donde melo y le  oculta su cancion

Am En Conce, en conce, en conce, en concepcion

Solo:

   Mientras la otra guitarra Toca -Mim, Sol, Do, Lamm 2 veces

|----------------------------------------------------|
|--8/10--8/10---8--10/12-10/12---10--10/12-10/12---10|
|9------------7----------------9-----------------9---|    X 2
|----------------------------------------------------|
|----------------------------------------------------|
|----------------------------------------------------|


Am Me encontre en Ricardo Manque
   casi esquina Ivan molina
   con un disco raro de Los Woodentops

Am Lo cambie por un pirata 
   de los Buzzcocks y mi hermano
   me pregunta si es que no hay devolucion

Bm En concepcion...

Bm Si suena el acordeon, ponle color
   y al regalon, lo llevo a Concepciooooon

Cm Syd Barret, Vive ahi
   Syd Barret, empieza donde el melo y le oculta su cancion

Termina con Em - G - C - Am

Pd= La version anterior no esta mala solo que es una sola guitarra y tiene muchas fallas en la letra


Si Tienen mas tabs de los Prisioneros que no aparescan aca , 
o material inedito para intercambiar ,mandenme un mail

            
            
Suggest correction
Creating personal tab
Creating personal tab
You can edit any tab online and save it as your Personal.

You can edit, replace or remove any tab part or add personal notes – all changes will be seen only by you.

Personal tabs can be accessed anytime from any device, even offline.
Learn more »
Give kudos to tab author, rate the tab!
1 2 3 4 5
comments
print report bad tab
guest
Wanna post a correction for this tab? Suggest correction