Oops, an error
Loading. Please wait.

Exijo Ser Un Héroe tab

67 views 1 this week
no commentswrite comment
1 2 3 4 5
3 more votes to show rating
add to favorites
×
Save as Personal and add changes to this tab that will be seen only by you. Learn more ›
×
You can save this tab as Personal to edit and correct it or add notes. All changes will be seen only by you. Learn more »
launch autoscroll
font size
0
reset
how to read this tab
guitar tuner
edit
Autoscroll
slow
fast
+/-
esc
set tempo
stop
Hola =D Bueno aca les mando mi transcripcion de este temón (como
diría Kramer xD) "un poco" más detallado que el que hizo Ignacio
Cartes

Acordes usados:
          eADGBE
  LA=A=   577655
do#m=C#m= x46654
  SI=B=   x24442
  Mi=E=   022100
fa#m=F#m= 244222
 Sol=G=   355433
Solm=Gm=  355333
  Re=D=   xx0232
  Fa=F=   133211
 La#=A#=  688766
 Rem=Dm=  x57765
 Re#=D#=  xx1343
 Fa#=F#=  244322

Do#M(*) Es ese acorde en el sintetizador, mientras que en
la guitarra sencillamente se toca esto:

E|--------------|
B|-----4---5----|
G|-6------------|
D|--------------|
A|--------------|
e|--------------|

Previo (Narrado)
Las Calles vistas desde las ventanas son tan, tan iguales
Pateando piedras, juntando monedas, soy un simple auditor
Lunes, Martes, Miércoles, Jueves, en las paredes del Metro
En el metro cada día... estoy yo

(En Sintetizador)
MI                    LA
¿Salgo o me voy a acostar?
DO#m                                     DO#M(*)
Estoy Aburrido de caminar con el viento en cara
FA#m            FA#   SOL#
Tan aburrido...

(Guitarra)
   LA              DO#m                SI
A. No estoy dispuesto a seguir mis días de oscuridad
   LA              DO#m           SI
   De ser uno mas, de entre el público esta bueno ya

(Aca va un arpegio algo así en los acordes de fa#m y Mi
E|------------------------------------|
B|------------------------------------|
G|---------------x--------------------|
D|---------x--------------------------|
A|--------------------------x---------|
e|-x---x-------x--------x-------x-----|)

   MI     FA#m
B. Tantos tipos posando en las revistas
   MI      FA#m
   Y yo no brillo ni en mi familia
   SOL
   La vida es cara y aburrida
   SOLm
   Para darla por perdida

A. Es cierto no tengo como ser un galán
   Tampoco un aire solemne de intelectual

B. Vivo con mi familia y no me drogo
   Como ven no soy muy artista
   Pero estaré en los escenarios
   Y en las fotos de los diarios

    LA           DO#m   FA#m
C. Exijo ser un héroe, exijo
    RE          FA
   Exijo ser un héroe
    LA           DO#m   FA#m
   Exijo ser un héroe, exijo
    RE          FA
   Exijo ser un héroe

   (LA LA# LA)

A. Veo a las estrellas en las portadas
   Con ropas y aires tan extraños
   Que no estoy tan seguro que sean de verdad

B. Soy un vulgar vecino sin disfraces
   como ven no soy muy artista
   pero estaré en los estadios
   y en los rankings de las radios

   LA            DO#m   FA#m
C. Exijo ser un héroe, exijo
    RE          FA
   Exijo ser un héroe
   LA            DO#m   FA#m
   Exijo ser un héroe, exijo
    RE          FA
   Exijo ser un héroe (x3)

(Acordes Intro Sintetizador)
Las Calles vistas desde las ventanas son tan, tan iguales
Pateando piedras, juntando monedas, soy un simple auditor

Solo
E|-------------------------|-------------------------|---|
B|-------------------------|-------------------------|---|
G|-------------------------|-------------------------|---|
D|-----------------4---2---|-------------------------|---|
A|---------2---4-----------|---------2---4---2-------|---|
e|-5---5-------------------|-5---5---------------5---|-2-|

E|------------------|-------------------------|
B|------------------|-------------------------|
G|------------------|---------------------2---|
D|-4---2---0---2----|-----------------2-------|
A|------------------|---------2---4-----------|
e|------------------|-5---5-------------------|

E|-------------------------|---|------------------|---|
B|-------------------------|---|------------------|---|
G|-1-----------------------|---|------------------|---|
D|---------0---2---4---2---|---|-4---2---0---2----|---|
A|-----4-------------------|-0-|------------------|-0-|
e|-------------------------|---|------------------|---|

   LA#           REm    SOLm
C#.Exijo ser un héroe, exijo
    RE#         FA#
   Exijo ser un héroe
   LA#           REm    SOLm
   Exijo ser un héroe, exijo
    RE#         FA#
   Exijo ser un héroe
   LA#           REm    SOLm
   Exijo ser un héroe, exijo
    RE#         FA#
   Exijo ser un héroe
   LA#           REm    SOLm
   Exijo ser un héroe, exijo
    RE#         FA#
   Exijo ser un héroe...

            
            
Suggest correction
Creating personal tab
Creating personal tab
You can edit any tab online and save it as your Personal.

You can edit, replace or remove any tab part or add personal notes – all changes will be seen only by you.

Personal tabs can be accessed anytime from any device, even offline.
Learn more »
Give kudos to tab author, rate the tab!
1 2 3 4 5
comments
print report bad tab
guest
Wanna post a correction for this tab? Suggest correction