Oops, an error
Loading. Please wait.

Fé tab

104 views 1 this week
no commentswrite comment
1 2 3 4 5
3 more votes to show rating
add to favorites
×
Save as Personal and add changes to this tab that will be seen only by you. Learn more ›
×
You can save this tab as Personal to edit and correct it or add notes. All changes will be seen only by you. Learn more »
launch autoscroll
font size
0
reset
how to read this tab
guitar tuner
edit
Autoscroll
slow
fast
+/-
esc
set tempo
stop
Intro


   Em
e-------------------------------------------------------------
B---------0-------------0------------0-------------0----------
G-------0---0---------0---0--------0---0---------0---0--------
D-----2-------2-----2-------2----2-------2-----2-------2------
A-------------------------------------------------------------
E--0-------------0------------0-------------0-----------------
Un telefono...


Esta es la manera en que se tocan los arpegios durante el verso.

e---------------------------------------------------------------
B---------0-----------0--------------1----------1---------------
G-------0---0-------0---0----------2---2------2---2-------------
D-----2-------2---2-------2------2-------2--2-------2-----------
A------------------------------0----------0----------0----------
E--0------------0-----------------------------------------------
              Em                            Am


e---------------------------------------------------------------
B--------2-------------1------------3-----------3---------------
G------2---2---------2---2--------3---3-------3---3-------------
D----4-------4-----2-------2----3-------3---3-------3-----------
A----------------0------------2-----------2---------------------
E--2------------------------------------------------------------
      F#m             Am                 B 

Em                 Am
Dama, yo soy quien habla,
F#m Am            B 
 ahhhha,    ¿Como estas?
Em           Am
Calla, solo te quiero,
F#m Am        B
 ahhhha, tranquilizar.


  E                           A       B
Escuchame una vez, lo que voy a contar
          E                            A      B
Sabes que vuelvo a tener fé, y empiezo a sanar,
                     A              B
Dama escuchame una vez, no, no, no,
         A         B
No voy a pedir amor,
          A       B              Em
te vez feliz y me gusta que seas feliz.


Em                Am 
Sabes con los recuerdos,
F#m Am              B
 ahhhha, de nuestro amor
Em               Am
Dice, mi propio sueño,
F#m Am             B
 ahhhha,  pero no, no no no no.


  E                        A       B
Escuchame una vez, todo tiene final.
             E                         A     B
Sabes que vuelvo a tener fé, y empiezo a sanar,
        A                       B
Dama escuchame una vez, no, no, no,
         A                        B
Sabes escuchame esta vez, por favor,
        A       B
seré feliz y yo se me quieres feliz.

            
            
Suggest correction
Creating personal tab
Creating personal tab
You can edit any tab online and save it as your Personal.

You can edit, replace or remove any tab part or add personal notes – all changes will be seen only by you.

Personal tabs can be accessed anytime from any device, even offline.
Learn more »
Give kudos to tab author, rate the tab!
1 2 3 4 5
comments
print report bad tab
guest
Wanna post a correction for this tab? Suggest correction