Oops, an error
Loading. Please wait.

Generación De Mierda bass

195 views 1 this week
no commentswrite comment
1 2 3 4 5
3 more votes to show rating
add to favorites
×
Save as Personal and add changes to this tab that will be seen only by you. Learn more ›
×
You can save this tab as Personal to edit and correct it or add notes. All changes will be seen only by you. Learn more »
launch autoscroll
font size
0
reset
guitar tuner
edit
Autoscroll
slow
fast
+/-
esc
set tempo
stop
escuchar la letra de este tema es muy grato, pero yo cambiaria 'Gringos' 
por 'Brasileños' de todos modos con los gringos tambien fue... 
Mencion honrosa Gonzalo Hernandez (BCR)

A) Intro 
G -----------------------------------------------------------
D -----------------------------------------------------------
A ---2222----------3333--------------------------------------  6X
E ----------0000----------3333-------------------------------

A1) Porque tienen miedo...   
G -----------------------------------------------------------
D -----------------------------------------------------------
A ----2---------------3--------------------------------------  6X
E ------------0---------------3------------------------------

A) Porque bailan y aúllan como gringos...
G -----------------------------------------------------------
D -----------------------------------------------------------
A ---2222----------3333--------------------------------------  4X
E ----------0000----------3333-------------------------------

B) Porque dan la lata porque tienen frío...  
G -----------------------------------------------------------
D -----------------------------------------------------------
A ----------0000----------5555---------------0000---1111-----
E ---1111----------3333-------------111111-------------------

A) Porque bailan y aúllan como gringos...

B2) Porque piden cosas que no quieren...
G -----------------------------------------------------------
D -----------------------------------------------------------
A ----------0000----------555555-----------0000---1111---5555
E ---1111----------3333-------------1111---------------------

C) Coro:
     Geee...neee...ración de mierda 
G -----------------------------------------------------------
D -----------------------------------------------------------
A ---------3333-------------0000-----------------------------
E ---3333--------1111-0000-----------------------------------
     Geee...neee...ración de mierda...de mier...
G -----------------------------------------------------------
D -----------------------------------------------------------
A ---------3333-------------0000----11111--------------------
E ---3333--------1111-0000-----------------------------------

A) Porque me molestan...
B2) Porque dices que me quieres y No entiendes la mitad de lo que digo
C) Geee...neee...ración de mierda

  Punteo, o algo así...(2 veces)
G|--------------------------------------------
D|------------------5---------------------5---
A|----7-5-------------------7-5---------------
E|-0------7-5---3--------0------7-5---3-------

G|--------------------------------------------
D|-----------7---7-----------9---9------------
A|---8---8-----------8---8--------------------
E|--------------------------------------------

D)Estás robando de la casa de tus viejos para poder comprar algunas gomas
G -----------------------------------------------------------
D -----------------------------------------------------------
A ---22222---11111---00000-----------------------------------  8X
E -----------------------------------------------------------

C) CORO: Geee...neee...ración de mierda......

bueno cada uno lo toca comolo siente y traten de ponerle harto corazon...

saludos a todo aquel que me conoce .... 
chau!...gracias

            
            
Suggest correction
Creating personal tab
Creating personal tab
You can edit any tab online and save it as your Personal.

You can edit, replace or remove any tab part or add personal notes – all changes will be seen only by you.

Personal tabs can be accessed anytime from any device, even offline.
Learn more »
Give kudos to tab author, rate the tab!
1 2 3 4 5
comments
print report bad tab
guest
Wanna post a correction for this tab? Suggest correction