Oops, an error
Loading. Please wait.

Las Sierras Eléctricas tab

version 2
version 2

Whole song

25 views 3 this week
no commentswrite comment
1 2 3 4 5
3 more votes to show rating
add to favorites
×
Save as Personal and add changes to this tab that will be seen only by you. Learn more ›
×
You can save this tab as Personal to edit and correct it or add notes. All changes will be seen only by you. Learn more »
launch autoscroll
font size
0
reset
how to read this tab
guitar tuner
edit
Autoscroll
slow
fast
+/-
esc
set tempo
stop
Las sierras eléctricas
----------------------

Antes que nada: esta tablatura la saque de la versión de la
Antología. Me parece que otras versiones suenan diferentes,
así que si no les suena igual, tal vez es por eso...o porque
el Punteo está malo, no lo se jaja... como sea, creo que
esta bien, pero si detectas errores, hazmelo saber.


Acordes
   A   Dm  Dm* C   G   F   G#  C*
e|-5---5---10--8---3---1---4---3---|
B|-5---6---10--8---3---1---4---3---|
G|-6---7---10--9---4---2---5---4---|
D|-7---7---12--10--5---3---6---5---|
A|-7---5---12--10--5---3---6---5---|
E|-5---5---10--8---3---1---4---3---|


Y tenemos aqui un disquito simpático para ti muñeca que estas solita en tu
casa...

           A
Las sierras eléctricas cortan las monedas
                                           Dm
en las bovedas limpias y secretas de los bancos
     A
Hojas de acero inoxidable
                              Dm
filos trabajados para un corte impecable

A (bajo)
Nananana...

Las sierras eléctricas cortan tus muñecas
Para apoderarse de tu sueldo miserable
Pero luego de un millón de cercenados
Se hacen de una fortuna respetable

 C/G
Ahaaaaaa...

 A Dm* C G  x2
Nanaa.....


 Punteo


    A
Las sierras eléctricas cortan los países
                                  Riff1 (dm)
Cortan a las rasas, cortan a los débiles
    A
Ocho toneladas de monedas
                            Riff 2 x2 (dm)
Ocho toneladas de manos aserradas

 C/G
Ahaaaaaa...

 A Dm* C G  x4
Nanaa.....

F
Las sierras eléctricas cortan las monedas
G
en las bovedas limpias y secretas de los bancos
F
Hojas de acero inoxidable
G                        G        G#        Punteo (A)
filos trabajados para un corte impecable
                         ¡Sierras eléctricas!

 A Dm* C G  (después de un rato tocas el Riff Final)
Nanaa.....
(Sierras eléctricaas...)

Termina en F (133xxx)


Punteo (con harta distorsion)
e|-------------------------------------------|
B|-------------------------------------------|
G|--9~--9-9p7------7-------------9*8*7*6*5*--|
D|-------------10-----10-9-----------------9-|
A|-------------------------10----------------|
E|-------------------------------------------|
 Corten!!!!                     Sierras!!!!!
   A          x4                           x2
e|-8----------|----8-10h--|------------------|
B|---9h10p9-8-|-10--------|------------------|
G|------------|-----------|-5p7-5p7-7p9-7p10-|
D|------------|-----------|------------------|
A|------------|-----------|------------------|
E|------------|-----------|------------------|
 Eléctricas!!!
*Se toca varias veces la nota

Riff 1
e|------------------------------------------|
B|-10------10------10------------12b-12b----|
G|----10------10------10------9-------------|
D|-------12------11------10-9---------------|
A|------------------------------------------|
E|------------------------------------------|

Riff 2
e|------------------------------------------|
B|------------------------------------------|
G|-------------7---------9------------7-----|
D|-----------7---10----7-------7--10--------|
A|-------8-9--------------------------------|
E|-10---------------------------------------|

Riff Final
 |se repite   |igual...    |
 |varias veces|
e|------------|-15b-14p15b-|
B|------------|------------|
G|-12b-11p12b-|------------|
D|------------|------------|
A|------------|------------|
E|------------|------------|

En el Riff Final, se tocan las dos partes, pero no son exactamente iguales, por
qe narea (narea?) hace unos cambios medios improvisados, pero igual suena bien

            
            
Suggest correction
Creating personal tab
Creating personal tab
You can edit any tab online and save it as your Personal.

You can edit, replace or remove any tab part or add personal notes – all changes will be seen only by you.

Personal tabs can be accessed anytime from any device, even offline.
Learn more »
Give kudos to tab author, rate the tab!
1 2 3 4 5
comments
print report bad tab
guest
Wanna post a correction for this tab? Suggest correction