Oops, an error
Loading. Please wait.

Mi Profesor Se Está Volviendo Loco bass

71 views 1 this week
no commentswrite comment
1 2 3 4 5
3 more votes to show rating
add to favorites
×
Save as Personal and add changes to this tab that will be seen only by you. Learn more ›
×
You can save this tab as Personal to edit and correct it or add notes. All changes will be seen only by you. Learn more »
launch autoscroll
font size
0
reset
guitar tuner
edit
Autoscroll
slow
fast
+/-
esc
set tempo
stop
Esta es la tablatura de bajo de uno de los mejores
temas 'inéditos' de Los Prisioneros.
Adecúa los tiempos escuchando el tema.

Intro:
  G|----------------------------------------
  D|---------------------------------------- x2
  A|-7-7-10-10-7-7-6-6-7-7-10-10------------
  E|----------------------------------------

  G|----------------------------------------
  D|---------------------------------------- x4
  A|-7-7-10-10-7-7-6-6----------------------
  E|----------------------------------------

(no hay bajo)
Mi profesor se está volviendo loco
sus sesos ya no aguantan más
repite una palabra en voz baja
que nadie logra descifrar

(al terminar el verso)Y ya es muy difícil de curar
  G|-----------------------------------------------
  D|-----------------------------------------------
  A|-7-7-10-10-7-7-6-6-7-7-10----------------------
  E|-----------------------------------------------

(lo mismo en éste)
Tiene la más dura enfermedad
y la más común(termina aquí)

a)los directores se preguntan que....
  G|-------------------|---------------------------
  D|-------------------|---------------------------
  A|-7-7-10-10-7-7-6-6-|-5-5-7-7-5-5-4-4-----------
  E|-------------------|---------------------------
            x2                      x2

b)Tiene la más dura enfermedad
  G|----------------|---------------------------
  D|-77-666-555-444-|---------------------------
  A|----------------|-7-7-10-10-7-7-6-6-7-7-10--
  E|----------------|---------------------------
                                x2

c)A esta edad no tiene marcha atrás
  G|--------------------------------------------
  D|-77-666-555-444-22222-----------------------
  A|--------------------------------------------
  E|--------------------------------------------

CORO:
      Yo comprendo el porqué mucho mejor que usted
  G|------------------|----------------------------
  D|----------9-----9-|7-6-7-6-4-------------------
  A|----7-6-7---6-7---|----------------------------  
  E|-0-7--------------|-----------0----------------
           a')                        b') 

Se ha dado cuenta de que equivocó el tren
             (a' x4)

No se asuste profesor, tal vez sea mejor
              (a' y b')
lo que vio en blanco y negro ahora está en color 
            (a' x3)
              

Intermedio:
G|---------------------------|-----------------------
D|---------------------------|----------------------- x2
A|-10-10-10------------------|------------7-77-6/7-7-
E|----------7-7-7-6-66-7/6-6-|-6-6-6-7-7-7-----------


a)mi profesor no se comporta de acuerdo con su dignidad
  está quemando libros en el patio con extraña ansiedad
b)y ha empezado a imitar hasta mi manera de hablar
a)los médicos no saben qué trastorna
  a mi viejo profesor
a)repite una palabra en voz baja
  para la que no hay razón
b)La palabra no logran captar
b)solo yo la puedo pronunciar

CORO
No hay remedio profesor
a esta cruel aflicción        (a' x4)

es la garra del fantasma de la frustración
sus colegas caerán tal como usted
(a' y b' x2)

cuando se miren la espejo la próxima vez (a' x2)

(Intermedio)


    Ah ah ah ah........
G|-------------------------------|-------------------
D|-------------------------------|-------------------
A|-77777-66666-55555-44444-33333-|-22222-11111-22222-
E|-------------------------------|-------------------

       (variante para 2da. voz)  |------------------------
                                 |------------------------
                                 |44444-55555-66666-77777-
                                 |------------------------

G|------------------------------------------------------ 
D|------------------------------------------------------
A|-77777-66666-88888-77777-10-10-10-10-10-99999-666666--
E|------------------------------------------------------


Mi profesor se está volviendo loco
  G|------
  D|------
  A|-7----
  E|------

Su boca me pide perdón
  G|------
  D|------
  A|-5----
  E|------

Mi profesor se está volviendo loco
  G|------
  D|------
  A|-7----
  E|------

Su palabra es frustración
  G|------
  D|------
  A|-5----
  E|------


b)Todos mis maestros del montón
b)caminando hacia el telón

La palabra es frustración
  G|-------------------------
  D|77-666-555-4------------- x3
  A|-------------------------
  E|-------------------------

Fin:
   G|------------------------
   D|------------------------
   A|7-7-10-10-7-7-6-6-7-----
   E|------------------------

Eso sería, cualquier error o duda me lo hacen saber
mandando un mail a mi dirección.

            
            
Suggest correction
Creating personal tab
Creating personal tab
You can edit any tab online and save it as your Personal.

You can edit, replace or remove any tab part or add personal notes – all changes will be seen only by you.

Personal tabs can be accessed anytime from any device, even offline.
Learn more »
Give kudos to tab author, rate the tab!
1 2 3 4 5
comments
print report bad tab
guest
Wanna post a correction for this tab? Suggest correction