Oops, an error
Loading. Please wait.

Usted Y Su Ambición tab

37 views 1 this week
no commentswrite comment
1 2 3 4 5
3 more votes to show rating
add to favorites
×
Save as Personal and add changes to this tab that will be seen only by you. Learn more ›
×
You can save this tab as Personal to edit and correct it or add notes. All changes will be seen only by you. Learn more »
launch autoscroll
font size
0
reset
how to read this tab
guitar tuner
edit
Autoscroll
slow
fast
+/-
esc
set tempo
stop
Intro:

                        
1 |-----------------|
2 |-----------------|
3 |---7b9--7b9--5---|
4 |---7b9--7b9------|
5 |-----------------|
6 |-----------------|


Riff 1: (x 2 veces)

        LA         SOL        RE         FA
1 |--5-5--5-5---7-7--7-7---5-5--5-5---5-5--5-5---|
2 |--5-5--5-5---8-8--8-8---7-7--7-7---6-6--6-6---|
3 |--6-6--6-6---7-7--7-7---7-7--7-7---5-5--5-5---|
4 |--7-7--7-7---9-9--9-9---7-7--7-7---7-7--7-7---|
5 |--x-x--x-x---x-x--x-x---x-x--x-x---x-x--x-x---|
6 |--x-x--x-x---x-x--x-x---x-x--x-x---x-x--x-x---|


  *(Cuando empieza la letra de la canción, 
   las notas son las mismas que las del RIFF 1, 
   Con la unica diferencia de CUANTAS VECES LAS TOCA). 


           LA          SOL   
        Yo le Conosco bién,

        RE           FA                             
        Pero es tan facil ver

            LA             SOL
        Sus mil batallas de cada dia 

        RE              FA       
        Sus sorisas de hipocresía

         LA                SOL
        Sale de su cueva, monten su auto

         RE              FA   
        pisa con recelo, por el asfalto

         LA               SOL 
        Noche y dia concentrado en un fin

        RE                     FA
        Y las caras duras en el maletín.


          * UUUUUUUUUUUUUUUUUU
           1 |-------------|
           2 |-------------|
  *Riff 2  3 |-------------|  (X 8 veces)
           4 |---------0---|              
           5 |------3------|             
           6 |---1---------|             
           
           
    (Se repite lo mismo en las estrofas siguientes) 


Solo:


1|----------------------------------------------------------------------|
2|-7b8r7--5----------------------------------------------5--------------|
3|-----------7--------5---------------5--7--7b9r7--5--------5-----------|
4|--------------7--5-----7--7---5--7------------------7--------7v--7--7-|
5|----------------------------------------------------------------------|
6|----------------------------------------------------------------------|


1|----------------------------------------------------------------------|
2|-----------------------------------------------7s8--8--8--------------|
3|--------------------------------------5-----5--8s9--9--9--7--5--7-----|
4|-------------------------7--5--7--7v-----7-------------------------7v-|
5|-7--5--7--5--7--5--7--5-----------------------------------------------|
6|----------------------------------------------------------------------|


1|----------------------------------------------------------------------|
2|-------------------------------------------------------------5v----5--|
3|--------------------------------------------5-5-5-5-5--5--7-----7-----|
4|-------5s7--7v--7v-------5------------------7-7-7-7-7-----------------|
5|--5s7---------------5s7-----7v-7v-7v---5s7----------------------------|
6|----------------------------------------------------------------------|


1|----------------------------------------------------------------------|
2|---8v--7--5-----------5----------------5------------5-5---------------|
3|-------------7--5--7----7--5-----5--------5--7-----------------5--7v--|
4|------------------------------7-----7-----------7v-------7--5---------|
5|----------------------------------------------------------------------|
6|----------------------------------------------------------------------|


1|------------------------------|
2|------5-----------------------|
3|---5-- --5--7-----------------|
4|---------------7v-------------|
5|----------------------7v-7v---|
6|------------------------------|


          * UUUUUUUUUUUUUUUUUU
           1 |-------------|
           2 |-------------|
  *Riff 2  3 |-------------|  
           4 |---------0---|              
           5 |------3------|             
           6 |---1---------|             


    En esta parte donde la letra dice algo asi:

  'Habladora miente suda......'
     
    Deben acompañar al teclado con el siguiente


1 |---------------------------------------------|
2 |---------------------------------------------|
3 |---7-6--7-6--7-6--7-6---5-4--5-4--5-4--5-4---|
4 |---7-7--7-7--7-7--7-7---5-5--5-5--5-5--5-5---|
5 |---------------------------------------------|
6 |---------------------------------------------|

    (Toquen esta parte, y se darán cuenta)


        Y se repite lo mismo siempre.
     Está todo completo, solo deben armarlo.


 (Si tienen dudas de las simbologías que aparecen en la tablatura,
consulten la 'Cursos de guitarra' en la sección 'Recursos'.

 Cualquier duda o sugerencia escribanme a thyrael79@


                           MADE IN CHILE.

            
            
Suggest correction
Creating personal tab
Creating personal tab
You can edit any tab online and save it as your Personal.

You can edit, replace or remove any tab part or add personal notes – all changes will be seen only by you.

Personal tabs can be accessed anytime from any device, even offline.
Learn more »
Give kudos to tab author, rate the tab!
1 2 3 4 5
comments
print report bad tab
guest
Wanna post a correction for this tab? Suggest correction