Oops, an error
Loading. Please wait.

¿quién Mató A Marilyn? bass

version 3
version 3

Whole song

65 views 3 this week
no commentswrite comment
1 2 3 4 5
3 more votes to show rating
add to favorites
×
Save as Personal and add changes to this tab that will be seen only by you. Learn more ›
×
You can save this tab as Personal to edit and correct it or add notes. All changes will be seen only by you. Learn more »
launch autoscroll
font size
0
reset
guitar tuner
edit
Autoscroll
slow
fast
+/-
esc
set tempo
stop
Este tema lo escribí anteriormente, pero me equivoqué, 
ahora está corregido, y les aseguro que está bien.

INTRO

G--------------------------------/
D-------------55-77-55-----------/
A----44-55-77----------77--------/
E-55-----------------------------/

G-------------44-66-44-----------/
D----33-44-66----------66--------/
A-44-----------------------------/
E--------------------------------/

G-------------77-55--------------/
D----44-55-77-------77-55--------/
A-55-----------------------------/
E--------------------------------/

G--------------------------------/
D----------------66-99-87--------/
A----66-77-99-77-----------------/
E-77-----------------------------/


CANTO
  Quiero saber quién fue
G--------------------------------/
D--------------------------------/
A--------------------------------/
E--0000000000--------------------/

  Quiero saber por qué sucedio
G--------------------------------/
D--------------------------------/
A--------------------------------/
E--4444444444--------------------/ 

  ¡Oh! ¡oh!, dime Marilyn
G--------------------------------/
D--------------------------------/
A--------------------------------/
E--5555555555--------------------/

  Dime quién, quién te mató
G--------------------------------/
D--------------------------------/
A----------222-------------------/
E--222222------------------------/

CORO
  Quién mató a Marilyn,la prensa fue o la radio tal vez
G-------------------------------------------/
D-------------------------------------------/
A-------------------------------------------/
E--5555555555-----------00000000000---------/

  Quién mató a Marilyn,la televisión o el ratón Mickey
G--------------------------------------------/
D--------------------------------------------/
A--------------------------------------------/
E--5555555555------------0000000000----------/

  Quién mató a Marilyn,dime,dime,dime quién fue
G---------------------------------------------/
D---------------------------------------------/
A---------------------------------------------/
E--5555555555-----------77777777777-----------/

SOLO
Teclado entra con: A-C#-D-E

G--------------------------------/
D--------------------------------/
A-------44444-55555-------77777--/
E-55555-------------77777--------/

Después del solo canta el coro y después:

  Busco en los diarios la explicación
G--------------------------------/
D-------------55-77-55-----------/
A----44-55-77----------77--------/
E-55-----------------------------/

  Pero la prensa me deja peor
G-------------44-66-44-----------/
D----33-44-66----------66--------/
A-44-----------------------------/
E--------------------------------/

  ¡Oh! dime Marilyn 
G-------------77-55--------------/
D----44-55-77-------77-55--------/
A-55-----------------------------/
E--------------------------------/
 
  dime quién,quién te mató
G--------------------------------/
D----------------66-99-87--------/
A----66-77-99-77-----------------/
E-77-----------------------------/
(se repite)

FINAL
  ¡Oh! Marilyn,Marilyn
G-----------------------------/
D-----------------------------/
A-----------------------------/
E--0-0--55-77-----------------/

Cualquier duda o sugerencia escríbanme

            
            
Suggest correction
Creating personal tab
Creating personal tab
You can edit any tab online and save it as your Personal.

You can edit, replace or remove any tab part or add personal notes – all changes will be seen only by you.

Personal tabs can be accessed anytime from any device, even offline.
Learn more »
Give kudos to tab author, rate the tab!
1 2 3 4 5
comments
print report bad tab
guest
Wanna post a correction for this tab? Suggest correction