Oops, an error
Loading. Please wait.

No Puedo Vivr Sin Tí bass

40 views 1 this week
no commentswrite comment
1 2 3 4 5
3 more votes to show rating
add to favorites
×
Save as Personal and add changes to this tab that will be seen only by you. Learn more ›
×
You can save this tab as Personal to edit and correct it or add notes. All changes will be seen only by you. Learn more »
launch autoscroll
font size
0
reset
guitar tuner
edit
Autoscroll
slow
fast
+/-
esc
set tempo
stop
Esta cancion es bien padre
la final sube un tono
con la del coro
espero les sirva
Cuando no sale el sol
E|-----|----|---|---|---|----------|
A|--10-|----|---|-7-|---|----------|x2
D|-----|----|-9-|---|-7-|-7--------|
G|-----|-14-|---|---|---|---4-5-7--|

Porque aprendi
E|----|---|---|---|-----|------|----|
A|----|---|-7-|---|-----|------|-5--|
D|--9-|-9-|---|-7-|-7-9-|------|----|
G|----|---|---|---|-----|-5-57-|----|

No, no puedo
E|--3-|-3--|--5-|-5--|-5--|
A|----|--2-|-2--|--5-|----|
D|----|----|----|----|----|
G|----|----|----|----|----|

no, no puedo
E|--3-|-3--|--5-|-55--|-5--|
A|----|--2-|-2--|---5-|----|
D|----|----|----|-----|----|
G|----|----|----|-----|----|

Siento que mi barca
E|----|-------|-------|----------|
A|--2-|-2-----|-2-----|----5320--|
D|----|--4321-|--5432-|-532------|
G|----|-------|-------|----------|

No, no puedo..
E|------------|-3-|-3--|--5-|-5--|-5--|
A|--0-2-3-3/5-|---|--2-|-2--|--5-|----|
D|------------|---|----|----|----|----|
G|------------|---|----|----|----|----|

Agradecido estoy
E|--3-3-|-2-|-2---|-----|-5-|-5----------|
A|------|---|--02-|-357-|---|---2-3-5----|
D|------|---|-----|-----|---|---------5--|
G|------|---|-----|-----|---|------------|

Nunca olvidare
E|--3-33-|-------|----|------|-5-|-5----------|
A|-------|-------|----|-2/3--|---|---2-3-5-3--|
D|-------|-4h5-4-|-4--|----2-|---|------------|
G|-------|-------|--4-|------|---|------------|

Se que mis palabras
E|----|-----|---|----|
A|--2-|-2-6-|-7-|----|
D|----|-----|---|-7--|
G|----|-----|---|----|

Pero mientras me queden fuerzas
E|--------------------|
A|--0-2-23-0/17-17/5--|
D|--------------------|
G|--------------------|

No, no puedo
E|--3-|-3--|--5-|-5--|-5--|
A|----|--2-|-2--|--5-|----|
D|----|----|----|----|----|
G|----|----|----|----|----|

no, no puedo
E|--3-|-3--|--5-|-5-----|
A|----|--2-|-2--|--5-3--|
D|----|----|----|-------|
G|----|----|----|-------|

Siento que mi barca
E|----|-------|-------|----------|
A|--2-|-2-----|-2-----|----5320--|
D|----|--4321-|--5432-|-532------|
G|----|-------|-------|----------|

No, no puedo..
E|------------|-3333-|-2222--|
A|--0-2-3-5-2-|------|-------|
D|------------|------|-------|
G|------------|------|-------|

Sin ti no soy
E|-------|------|------|------|
A|--7777-|-6666-|-5555-|-4444-|
D|-------|------|------|------|
G|-------|------|------|------|

Necesito estar al lado tuyo
E|--5-|-353-|-35--|-5---|----|
A|----|-----|---5-|--52-|-5--|
D|----|-----|-----|-----|----|
G|----|-----|-----|-----|----|

Se que en
E|-------|------|------|------|
A|--7777-|-6666-|-5555-|-4444-|
D|-------|------|------|------|
G|-------|------|------|------|

Me guiaras
E|--5-|-353-|-35--|----------------|
A|----|-----|---5-|-7777-7777-7/0--|
D|----|-----|-----|----------------|
G|----|-----|-----|----------------|

atte. miauricio gatolar

            
            
Suggest correction
Creating personal tab
Creating personal tab
You can edit any tab online and save it as your Personal.

You can edit, replace or remove any tab part or add personal notes – all changes will be seen only by you.

Personal tabs can be accessed anytime from any device, even offline.
Learn more »
Give kudos to tab author, rate the tab!
1 2 3 4 5
comments
print report bad tab
guest
Wanna post a correction for this tab? Suggest correction