Oops, an error
Loading. Please wait.

Quiero Mas De Tí tab

19 views 3 this week
no commentswrite comment
1 2 3 4 5
3 more votes to show rating
add to favorites
×
Save as Personal and add changes to this tab that will be seen only by you. Learn more ›
×
You can save this tab as Personal to edit and correct it or add notes. All changes will be seen only by you. Learn more »
launch autoscroll
font size
0
reset
how to read this tab
guitar tuner
edit
Autoscroll
slow
fast
+/-
esc
set tempo
stop
 D         A/F#      G         Bm  A
Hoy estoy aquí recordando mi pasa-do
D       A/F#      G              A  F#
y puedo ver  que todo tu me has da--do,
 Bm       A        G         Bm  A
pues tu amor cautivo toda mi vi-da
Bm      A/F#    G             A       F#
y  tu calor cubrió mi piel vacía, por eso yo.


  Bm    A      G     A            D  F#
Quiero más de ti, Jesús te necesito,
  Bm    A      G   A          G      F#
quiero más de ti, hoy mismo a ti me rindo,
              Bm  A      G        A                D   F#
porque quiero    más de ti, no importa lo que cueste
  Bm    A      G          A    D
quiero más de ti, más de ti Jesús.


A/F#  G  Asus4  A


 D         A/F#      G          Bm  A
Hoy estoy aquí  ordenando mi presente
  D      A/F#         G          A  F#
quiero saber  lo que pasa en mi me-nte,
 Bm       A         G          A F#
pues tu amor  cautivo toda mi vi-da
Bm      A/F#    G             A       F#
y  tu calor cubrió mi piel vacía, por eso yo.


  Bm    A      G     A            D  F#
Quiero más de ti, Jesús te necesito,
  Bm    A      G   A          G      F#
quiero más de ti, hoy mismo a ti me rindo,
       LA#dimm  Bm  A      G        A                D   F#
porque quiero      más de ti, no importa lo que cueste
  Bm    A      G          A
quiero más de ti, más de ti...


A :-----0--2--1--2--4--
E :--3-----------------


  Bm    A      G     A            D  F#
Quiero más de ti, Jesús te necesito,
  Bm    A      G   A          G      F#
quiero más de ti, hoy mismo a ti me rindo,
       LA#dimm  Bm  A      G        A                D   F#
porque quiero      más de ti, no importa lo que cueste
  Bm    A      G          A    D
quiero más de ti, más de ti Jesús.


PUNTEO:    G   A   D / C#dimm /  Bm  /  A

             G   F#m   Em   F#

                                 G           A                D
E --------------------------14-17/19--17/19--17---15-17-14-15-17--
B -----------------14-15-17---------------------------------------
G --16-14-13-14-16------------------------------------------------
D ----------------------------------------------------------------
A ----------------------------------------------------------------
E ----------------------------------------------------------------

           C#dimm       Bm                A              G
E --19-19-17-15---17-15-14----------15-17-15----15-17-19-21/22-19--
B -------------------------15-17-19----------19--------------------
G -----------------------------------------------------------------
D -----------------------------------------------------------------
A -----------------------------------------------------------------
E -----------------------------------------------------------------

   F#m                     Em
E --21/22-17---15-17-15-14-15-15-14-----
B ----------------------------------15--
G --------------------------------------
D --------------------------------------
A --------------------------------------
E --------------------------------------

      F#
E ---------7-----------7-------------------------
B -------7---10-7--------10-7---------10-7-------
G --9/11----------9/11--------9/11---------9/11--
D -----------------------------------------------
A -----------------------------------------------
E -----------------------------------------------


  Bm    A      G     A            D  F#
Quiero más de ti, Jesús te necesito,
  Bm    A      G       A      G      F#
quiero más de ti, hoy mismo a ti me rindo,
                 F#      G        A                D  A
porque quiero    más de ti, no importa lo que cueste
  Bm    A      G          A    G  F#m  Em    A     D
quiero más de ti, más de ti Jesú-u-u-u-us,  mas de ti.


CUALQUIER ERROR NO DUDAR EN HACERLO SABER, GRACIAS!
Gustavo749@
Suggest correction
Creating personal tab
Creating personal tab
You can edit any tab online and save it as your Personal.

You can edit, replace or remove any tab part or add personal notes – all changes will be seen only by you.

Personal tabs can be accessed anytime from any device, even offline.
Learn more »
Give kudos to tab author, rate the tab!
1 2 3 4 5
comments
print report bad tab
guest
Wanna post a correction for this tab? Suggest correction