Oops, an error
Loading. Please wait.

Sé Libre chords

13 views 1 this week
no commentswrite comment
1 2 3 4 5
3 more votes to show rating
add to favorites
×
Save as Personal and add changes to this tab that will be seen only by you. Learn more ›
×
You can save this tab as Personal to edit and correct it or add notes. All changes will be seen only by you. Learn more »
launch autoscroll
font size
0
reset
transpose
0
reset
simplify chords
display chords
guitar tuner
edit
Autoscroll
slow
fast
+/-
esc
set tempo
stop
Strumming
There is no strumming pattern for this song yet. and get +5 IQ
INTRO:

E --X--    --X--    --X--    --3--
B --3--    --2--    --3--    --2--
G --0--    --2--    --4--    --3--
D --4--    --0--    --3--    --4--
A --2--    --2--    --4--    --X--
E --X--    --X--    --X--    --X--


Bm
En mi cuarto pude oír una voz,
una voz que me decía te amo.
No sabía quien era,
solo una voz pude escuchar.


CORO
          A  F#m   G
Yo soy Jesús  y te amo,
         A      F#m    G
morí por ti más resucité,
             A        F#m    G
Y quiero que tú mueras al pasado,
      Em                F#7
y resucites a una nueva vida.

            Bm    G      A
Sé libre al fin, con Jesús.
            Bm    G       A
Sé libre al fin, dale tu vida.
            Bm  C#m    D
Sé libre al fin  y  verás,
       G          F#7
que tu vida cambiará,
       Bm
con Jesús.


Bm
Si quieres escuchar esa voz,
esa vos que te está llamando.
Deja que El habrá tu puerta,
y esa voz escucharás.


CORO
          A  F#m   G
Yo soy Jesús...

  REPITE x2
            Bm   G      A
Sé libre al fin con Jesús,
            Bm   G       A
sé libre al fin dale tu vida,
            Bm  C#m    D
sé libre al fin  y  verás
       G          F#7
que tu vida cambiará.


PUNTEO
                     G  A                     G  A
E ----------------------------------------------------
B --------3-2-3-2------------------3-2-3-2------------
G ----------------4--0--2------------------4--0--2----
D --4-4-4------------0--2----4-4-4------------0--2----
A ----------------------------------------------------
E ----------------------------------------------------


                               Bm C#m   D
E --------------------15-17-17b19b17-15-14-15-17-----
B -----------15-17-19----------------------------15--
G --14-16-18-----------------------------------------
D ---------------------------------------------------
A ---------------------------------------------------
E ---------------------------------------------------

    G
E --19-15----15-19-15----15-19-15----15-19-15-----
B --------17----------17----------17----------17--
G ------------------------------------------------
D ------------------------------------------------
A ------------------------------------------------
E ------------------------------------------------

   F#7
E --21-17----17-21-17----17-21-17----17-21-17----22b24-
B --------19----------19----------19----------19-------
G -----------------------------------------------------
D -----------------------------------------------------
A -----------------------------------------------------
E -----------------------------------------------------


REPITE x2
            Bm    G      A
Sé libre al fin, con Jesús.
            Bm    G       A
Sé libre al fin, dale tu vida.
            Bm  C#m    D
Sé libre al fin  y  verás,
       G          F#7
que tu vida cambiará.


      Bm   G  A
con Jesús,
      Bm   G  A
con Jesús,
      Bm   G  A
con Jesús,


       G
Con Jesú-u-u-u-u-u-u-u-s.

                          (G)
   e --0-------
   B ----3-----
   G ------0---
   D --------4-
   A ----------
   E ----------


ANTE CUALQUIER ERROR NO DUDEN EN HACERLO SABER, GRACIAS!!!
gustavo749@

*** LOS NOMBRES DE LOS TONOS DE LA INTRO Y EL ANTEULTIMO
    NO LOS ENCONTRE POR NUNGUN LADO, SI ALGUIEN SABE LOS NOMBRES
    Y EL POR QUE, SERAN MUY AGRADECIDOS!

            
            
Suggest correction
Creating personal tab
Creating personal tab
You can edit any tab online and save it as your Personal.

You can edit, replace or remove any tab part or add personal notes – all changes will be seen only by you.

Personal tabs can be accessed anytime from any device, even offline.
Learn more »
Give kudos to tab author, rate the tab!
1 2 3 4 5
comments
print report bad tab
guest
Wanna post a correction for this tab? Suggest correction