Oops, an error
Loading. Please wait.

Sin Tí tab

version 1
version 1

Whole song

10 views 1 this week
no commentswrite comment
1 2 3 4 5
3 more votes to show rating
add to favorites
×
Save as Personal and add changes to this tab that will be seen only by you. Learn more ›
×
You can save this tab as Personal to edit and correct it or add notes. All changes will be seen only by you. Learn more »
launch autoscroll
font size
0
reset
how to read this tab
guitar tuner
edit
Autoscroll
slow
fast
+/-
esc
set tempo
stop
INTRO:

  Bm     G      D   A       Bm    G      D     A
E|---------------------------|---------------------------
B|---------------------7-----|---------------------7-8-7-
G|---6-7-----4---7-7-9---9-7-|---6-7-----4---7-7-9-------
D|-9-----5-7-----------------|-9-----5-7-----------------
A|---------------------------|---------------------------
E|---------------------------|---------------------------

   Bm    G       D     A
E|---------------------------
B|---------------------7-----
G|---6-7-----4---7-7-9---9-7-
D|-9-----5-7-----------------
A|---------------------------
E|---------------------------


Em Em - G G - A A

        Bm            D          A
Una vez más al despertar viene a mí
  A#m/5-                   Bm
Historias que ya quiero olvidar
        D            A
Debo decir que solo fui
 A#m/5-                     G
Peón de juego en el cual perdí
       D         A  Em           G
Y mi pasado quedara en el olvido
         D             A
En este mundo quiero estar
E
Siempre contigo

CORO:
  Bm     Em          G           A
     Sin ti me doy cuenta que la vida es dura
  Bm     Em          G           A
     Sin ti todo el mundo pierde su color
  Bm    Em           G          A       G
      Vivir bajo el cielo sin tu cobertura

INTRO

         Bm             D          A
Lejos de ti no encontrare la libertad
    A#m/5-                   Bm
Que tanto tiempo quise alcanzar
        D           A
Tu corazón es la razón
   A#m/5-                 G
La clave solo para el perdón
       D             A  Em          G
Y mi pasado quedo atrás en el olvido
         D             A    E
En este mundo quiero estar siempre contigo

CORO:
  Bm     Em          G           A
     Sin ti me doy cuenta que la vida es dura
  Bm     Em          G           A
     Sin ti todo el mundo pierde su color
  Bm    Em           G          A       G
      Vivir bajo el cielo sin tu cobertura

                D/F#
     Es como no ver el sol
  G                 D/F#
      Como un barco sin timón
             E
    Sin tu amor no quiero seguir no no?


INTRO, CORO, INTRO


  Bm     Em          G           A
     Sin ti me doy cuenta que la vida es dura

   Bm    G        D     A
E|---------------------------
B|---------------------7-----
G|---6-7-----4---7-7-9---9-7-
D|-9-----5-7-----------------
A|---------------------------
E|---------------------------

  Bm     Em          G           A
     Sin ti todo el mundo pierde su color

   Bm    G        D     A
E|---------------------------
B|---------------------7-----
G|---6-7-----4---7-7-9---9-7-
D|-9-----5-7-----------------
A|---------------------------
E|---------------------------

  Bm    Em           G          A       G
     Vivir bajo el cielo sin tu cobertura

   Bm    G        D     A
E|-------------------------
B|-------------------------
G|---6-7-----4---7-7-6-6-6-
D|-9-----5-7---------------
A|-------------------------
E|-------------------------


A#m/5-

E|--0--
B|--2--
G|--3--
D|--2--
A|--1--
E|--O-


Hola!!! Esta es mi primera transcripción, me atreví
aunque no se escribir tablaturas, soy un guitarrista
autodidacta, así que si hay algún detallito o cualquier mi email
 es joesguitarpro18@ ahí me agregan al Messenger y
conversamos, OK?
La nota ?A#m/5-?es gentileza de Valerito, así se llama ese
acorde.
Aprovecho de mandar saludos a los jóvenes de mi Iglesia en
Chillán y a mi hermano, Felipe.
Saludos a una amiga muy especial para mi, Jani, que Dios te
bendiga mucho, y a otra amiga, que es como mi hermanita,
Marisol. A mi Dios un beso grande.
Espero que esta sea la primera de muchas... BYE

            
            
Suggest correction
Creating personal tab
Creating personal tab
You can edit any tab online and save it as your Personal.

You can edit, replace or remove any tab part or add personal notes – all changes will be seen only by you.

Personal tabs can be accessed anytime from any device, even offline.
Learn more »
Give kudos to tab author, rate the tab!
1 2 3 4 5
comments
print report bad tab
guest
Wanna post a correction for this tab? Suggest correction