Oops, an error
Loading. Please wait.

Sin Tí tab

version 2
version 2

Whole song

10 views 1 this week
no commentswrite comment
1 2 3 4 5
3 more votes to show rating
add to favorites
×
Save as Personal and add changes to this tab that will be seen only by you. Learn more ›
×
You can save this tab as Personal to edit and correct it or add notes. All changes will be seen only by you. Learn more »
launch autoscroll
font size
0
reset
how to read this tab
guitar tuner
edit
Autoscroll
slow
fast
+/-
esc
set tempo
stop
INTRO:

    Bm     D          A     E
E|------------------------------------|
B|--0-2--3--------0---3-3--5--7--5--3-|
G|---------1---3----------------------|
D|------------------------------------|
A|------------------------------------|
E|------------------------------------|

   Bm      D          A     E
E|------------------------------------|
B|--0-2--3--------0---3-3--5--7--8--7-|
G|---------1---3----------------------|
D|------------------------------------|
A|------------------------------------|
E|------------------------------------|
  Bm       D          A     E

E|------------------------------------|
B|--0-2--3--------0---3-3--5--7--5--3-|
G|---------1---3----------------------|
D|------------------------------------|
A|------------------------------------|
E|------------------------------------|


Em Em - G G - A A

        Bm            D          A
Una vez más al despertar viene a mí
 E                               Bm
Historias que ya quiero olvidar
        D            A
Debo decir que solo fui
 E                               G
Peón de juego en el cual perdí
       D          A E              G
Y mi pasado quedara en el olvido
         D              A
En este mundo quiero estar
E
Siempre contigo

CORO:
  Bm     D           A        E
     Sin ti me doy cuenta que la vida es dura
  Bm     D           A        E
     Sin ti todo el mundo pierde su color
  Bm     D           A        E
      Vivir bajo el cielo sin tu cobertura...

INTRO

         Bm             D          A
Lejos de ti no encontrare la libertad
E                               Bm
Que tanto tiempo quise alcanzar
        D           A
Tu corazón es la razón
E                             G
La clave solo para el perdón
        D           A  E              G
Y mi pasado quedo atrás en el olvido
         D              A
En este mundo quiero estar
E
Siempre contigo


CORO:
  Bm     D           A        E
     Sin ti me doy cuenta que la vida es dura
  Bm     D           A        E
     Sin ti todo el mundo pierde su color
  Bm     D           A        E                   G
      Vivir bajo el cielo sin tu cobertura...
               D
     Es como no ver el sol
  G                 D
      Como un barco sin timón
             E
    Sin tu amor no quiero seguir no no?

una guitarra acompaña y otra hace el intro

    Bm     D          A     E
E|------------------------------------|
B|--0-2--3--------0---3-3--5--7--5--3-|
G|---------1---3----------------------|
D|------------------------------------|
A|------------------------------------|
E|------------------------------------|
  Bm     D           A        E
     Sin ti me doy cuenta que la vida es dura
   Bm      D          A     E
E|------------------------------------|
B|--0-2--3--------0---3-3--5--7--8--7-|
G|---------1---3----------------------|
D|------------------------------------|
A|------------------------------------|
E|------------------------------------|
   Bm     D           A        E
     Sin ti todo el mundo pierde su color

Bm       D          A     E

E|------------------------------------|
B|--0-2--3--------0---3-3--5--7--5--3-|
G|---------1---3----------------------|
D|------------------------------------|
A|------------------------------------|
E|------------------------------------|

 Bm     D           A        E
      Vivir bajo el cielo sin tu cobertura...
Suggest correction
Creating personal tab
Creating personal tab
You can edit any tab online and save it as your Personal.

You can edit, replace or remove any tab part or add personal notes – all changes will be seen only by you.

Personal tabs can be accessed anytime from any device, even offline.
Learn more »
Give kudos to tab author, rate the tab!
1 2 3 4 5
comments
print report bad tab
guest
Wanna post a correction for this tab? Suggest correction