Oops, an error
Loading. Please wait.

Una Razón tab

13 views 3 this week
no commentswrite comment
1 2 3 4 5
3 more votes to show rating
add to favorites
×
Save as Personal and add changes to this tab that will be seen only by you. Learn more ›
×
You can save this tab as Personal to edit and correct it or add notes. All changes will be seen only by you. Learn more »
launch autoscroll
font size
0
reset
how to read this tab
guitar tuner
edit
Autoscroll
slow
fast
+/-
esc
set tempo
stop
INTRO:    Dm    Gm    Dm

E -----------------------:        ---------
B --------8-6-------8-6--:        ---------
G --5-6-7-----5-6-7------: x4     --7-5-7--
D -----------------------:        ---------
A -----------------------:        ---------
E -----------------------:        ---------


Dm
   En este mundo Gris,

En el que vives hoy,
    Gm              Dm
Llorando estas, llorando estas.


Dm
   No hay una explicación,

Para toda tu indesición,
    Gm              Dm
Llorando estas, llorando estas.


D#
   Y en lo oscuro de tu mente,
         Dm
   no llegas a entender.
D#           Edimm
   Que Jesús esta muy cerca,

         D --7--7---7----5-6-7--:
         A ---------------------:
         E ---------------------:
   y hoy lo puedes ver.


        Dm        Am
Todavía hay una razón,
          Dm              G
Hay una salida solo para vos.
Gm     C             F            A
Con Jesús en el corazón, encontraras.
           Dm         Am
La mas evidente claridad,
               Dm               G
Cristo es el camino vida y verdad.
 Gm     C             Dm
Solo en El la encontraras.


INTRO:    Dm    Gm    Dm


E -----------------------:        ---------
B --------8-6-------8-6--:        ---------
G --5-6-7-----5-6-7------: x4     --5-6-7--
D -----------------------:        ---------
A -----------------------:        ---------
E -----------------------:        ---------


Dm
   No, no sufras mas,

Todo puede cambiar.
    Gm                 Dm
No llores mas, no, no llores mas.


Dm
   Hay una salvación,

Solo esta en tu corazón.
    Gm             Dm
No llores mas, no llores mas.


D#
   Y en lo oscuro de tu mente,
         Dm
   no llegas a entender.
D#            Edimm
   Que Jesús esta muy cerca,

         D --7--7---7----5-6-7--:
         A ---------------------:
         E ---------------------:
   y hoy lo puedes ver.


        Dm        Am
Todavía hay una razón,
          Dm              G
Hay una salida solo para vos.
Gm     C             F            A
Con Jesús en el corazón, encontraras.
           Dm         Am
La mas evidente claridad,
               Dm                 G
Cristo es el camino la vida y verdad.
 Gm     C             Dm
Solo en El la encontraras.


SOLO   Dm  Gm  Dm  E  A

      Dm                                                  Gm
E ----------------------------------------------------13-15/17--
B --13/15---------------------------------------13-15-----------
G ---------12/1412-10-12--1412-10-12-10-----------------------
D ----------------------------------------12-12-----------------
A --------------------------------------------------------------
E --------------------------------------------------------------

                           Dm                              E
E --15/1715-13-15-15----15/17-1715-13-15/17-13-------------12---12--
B -----------------------------------------------15-15----/10---10----
G --------------------------------------------------------------------
D --------------------------------------------------------------------
A --------------------------------------------------------------------
E --------------------------------------------------------------------

    A
E --9-12-9----------------------
B ---------11-11--8-11-8--------
G -----------------------9-9-6--
D ------------------------------
A ------------------------------
E ------------------------------


INTRO: 1/2    Em
        Em
E -------------------------:        ---------
B --------10-8-------10-8--:        ---------
G --7-8-9------7-8-9-------: x2     --7-8-9--
D -------------------------:        ---------
A -------------------------:        ---------
E -------------------------:        ---------


        Em        Bm
Todavía hay una razón,
          Em              A
Hay una salida solo para vos.
Am     D             G            B
Con Jesús en el corazón, encontraras.
           Em         Bm
La mas evidente claridad,
               Em                 A
Cristo es el camino la vida y verdad.
 Am     B              Em
Solo en El, la encontraras.


           Em
La encontraras,
           Am
la encontraras.
                     Em - D/E
Ho ho ho ho ho ho!.


CUALQUIER ERROR NO DUDAR EN HACERLO SABER, GRACIAS!
Gustavo749@

            
            
Suggest correction
Creating personal tab
Creating personal tab
You can edit any tab online and save it as your Personal.

You can edit, replace or remove any tab part or add personal notes – all changes will be seen only by you.

Personal tabs can be accessed anytime from any device, even offline.
Learn more »
Give kudos to tab author, rate the tab!
1 2 3 4 5
comments
print report bad tab
guest
Wanna post a correction for this tab? Suggest correction