Oops, an error
Loading. Please wait.

¿de Qué? bass

62 views 1 this week
no commentswrite comment
1 2 3 4 5
3 more votes to show rating
add to favorites
×
Save as Personal and add changes to this tab that will be seen only by you. Learn more ›
×
You can save this tab as Personal to edit and correct it or add notes. All changes will be seen only by you. Learn more »
launch autoscroll
font size
0
reset
guitar tuner
edit
Autoscroll
slow
fast
+/-
esc
set tempo
stop
:Intro:
:Estrofa 1:(Primera Parte)
:Estrofa 2:(Segunda Parte)

disfrutar ..., mucho por gastar, ...

G]---------------:--------:---------------:---------:
D]---------------:--------:---------------:---------:
A]---------------:--------:---------------:---------:
E]5-5-5-5-5-5-5-5:--------:4-4-4-4-4-4-4-4:---------:

pensar, si su afan ...

G]---------------:---------------:---------------:---------------:
D]---------------:---------------:---------------:---------------:
A]---------------:---------------:---------------:---------------:
E]2-2-2-2-2-2-2-2:2-2-2-2-2-2-2-2:4-4-4-4-4-4-4-4:4-4-4-4-4-4-4-4:

:Estrofa 2:

Necio, vienen por tu alma ...

G]---------------:---------------:---------------:---------------:
D]--------4-4-4-4:6-6-6-6-7-7-7-7:---------------:--------6-6-6-6:
A]7-7-7-7--------:---------------:4-4-4-4-6-6-6-6:7-7-7-7--------:
E]---------------:---------------:---------------:---------------:

Cuando la vida ...

G]---------------:---------------:---------------:---------------:
D]--------4-4-4-4:6-6-6-6-7-7-7-7:---------------:--------6-6-6-6:
A]7-7-7-7--------:---------------:4-4-4-4-6-6-6-6:7-7-7-7--------:
E]---------------:---------------:---------------:---------------:

amontonar ...

G]---------------:---------------:---------------:---------------:
D]---------------:---------------:---------------:---------------:
A]---------------:---------------:---------------:---------------:
E]5-5-5-5-5-5-5-5:5-5-5-5-5-5-5-5:4-4-4-4-4-4-4-4:4-4-4-4-4-4-4-4:

quedara, sino tengo ...

G]---------------:---------------:---------------:---------------:
D]---------------:---------------:---------------:---------------:
A]---------------:---------------:---------------:---------------:
E]2-2-2-2-2-2-2-2:2-2-2-2-2-2-2-2:4-4-4-4-4-4-4-4:4-4-4-4-4------:

:Coro:

¿De que me ...?

G]--------------:---------------:---------------:---------------:
D]------------2-:---------------:---------------:---------------:
A]4-4-4-4-4-4--4:---------------:---------------:---------------:
E]--------------:5-5-5-5-5-5-5-5:0-0-0-0-0-0-0-0:0-0-0-0-0-0-0-0:

¿De que me ...?

G]--------------:---------------:---------------:---------------:
D]------------2-:---------------:---------------:---------------:
A]4-4-4-4-4-4--4:---------------:---------------:----------0-2-3:
E]--------------:5-5-5-5-5-5-5-5:0-0-0-0-0-0-0-0:0-0-0-0-0------:

¿De que me ...?

G]--------------:---------------:---------------:---------------:
D]------------2-:---------------:---------------:---------------:
A]4-4-4-4-4-4--4:---------------:---------------:---------------:
E]--------------:5-5-5-5-5-5-5-5:0-0-0-0-0-0-0-0:0-0-0-0-0-0-0-0:

en paz, sin la ...

G]---------------:--------------:---------------:---------------:
D]---------------:--------------:---------------:---------------:
A]---------------:--------------:---------------:---------------:
E]2-2-----------2:2-2--------2-2:1-1-----------1:1-1------------:

:Estrofa 2:
:Coro:
:Solo de Guitarra = Coro:
:Coro:
:Final:

Dentro de mi alma ...

G]---------------:---------------:------------:------------:
D]---------------:---------------:------------:------------:
A]---------------:---------------:5-5-5--5-5-5:5-5-5--5-5-5:
E]0-0-0-0-0-0-0-0:2-2-2-2-2-2-2-2:------------:------------:

Dentro de mi alma ...

G]---------------:---------------:---------------:---------------:
D]---------------:---------------:---------------:---------------:
A]---------------:---------------:5-5-5-5-5-5-5-5:5-5-5-5-5-5-5-5:
E]0-0-0-0-0-0-0-0:2-2-2-2-2-2-2-2:---------------:---------------:


Bueno es una excelente cancion de Puerto Seguro, especialmnete de su ultima produccion.
mando un beso enorme a todos los que me siguen en la gran aventura de mi vida
de estar entre los 50 mejores del ATAME.
Un beso grande como siempre a mi gran amiga de Chile Carolina: BESOS CUIDATE TE AMO
Un saludo grande tb al iglesia Catedral de Fe, una iglesia, que
me acogio con los brazos abiertos y a toda la gente amiga q estuvo siempre a mi lado...
un beso a todos!!!!!!!!!!!

            
            
Suggest correction
Creating personal tab
Creating personal tab
You can edit any tab online and save it as your Personal.

You can edit, replace or remove any tab part or add personal notes – all changes will be seen only by you.

Personal tabs can be accessed anytime from any device, even offline.
Learn more »
Give kudos to tab author, rate the tab!
1 2 3 4 5
comments
print report bad tab
guest
Wanna post a correction for this tab? Suggest correction