Oops, an error
Loading. Please wait.

El Furgón tab

23 views 1 this week
no commentswrite comment
1 2 3 4 5
3 more votes to show rating
add to favorites
×
Save as Personal and add changes to this tab that will be seen only by you. Learn more ›
×
You can save this tab as Personal to edit and correct it or add notes. All changes will be seen only by you. Learn more »
launch autoscroll
font size
0
reset
how to read this tab
guitar tuner
edit
Autoscroll
slow
fast
+/-
esc
set tempo
stop
FURGON- LA PULPOSA

  Intro
e|-------------------------
B|-------------------------
G|-------------------------
D|-10-10--12--10--12--10---  X4
A|-8--8---8---8---8---8----
E|-------------------------


e|-------------------------------------------------------------
B|-------------------------------------------------------------
G|-----8-----10-----8-----10----8-------8----10----8----10-----
D|-s10----10-----10----10----10------10---10----10---10--------
A|-------------------------------------------------------------
E|-------------------------------------------------------------

e|-------------------------------------------------------------
B|---3-1-------------------------------------------------------
G|---3-1b--------8----10----8----10----8------8----10----------
D|-3---------s10---10----10---10----10-----10---10-----10------
A|-------------------------------------------------------------
E|-------------------------------------------------------------

e|-----------------
B|-4--3--1--1------
G|-5--3--1--1b-----
D|--------------3--
A|-----------------
E|-----------------


  Riffs

    1                2         3         4                5
e|-1---------------|---------|--------|-6--6----------|-8---8----------
B|-1-3--1----------|-3--4--3-|-5--6--5|-6--6----------|-8---8----------
G|---3--1b...------|-3--3--3-|-5--5--5|-8--7--------7-|-10--9--------9-
D|---------------3-|-3--3--3-|-5--5--5|-6--8--------8-|-8---10-------10
A|-----------------|-1--1--1-|-3--3--3|-8--8--------8-|-10--10-------10
E|-----------------|---------|--------|-6--6--9-10--6-|-8---8--11-12-8-

   6                    7
e|--------------------|---------|
B|--------------------|----3--1-|
G|-----3-5-5ba-p3---3-|----3--1b|
D|-3h5------------5---|-3-------|
A|--------------------|---------|
E|--------------------|---------|


                                 Riff 1
Yo ya no respondo por esta mujer.


No puedo llevarte, me vas a entender?

 F5
Quiero emborracharme si voy a perder,


o una pastillita para comprender,

      Bb(riff 2)  C(riff 3)
si me sale, si me sale bien,

       Bb5 (riff 4)           C5 (riff 5)
porque yo soy barrio rock' n' roll

          Bb5 Riff 6
y junto a vos,

                       C5
no puedo desatar la pasión.


     F5 Riff 7     Bb5           F5  Riff 7
Rocanrol       se canta en el furgón.
Hay mucha exitación y pocos para ir.
Rocanrol se canta en el furgón.

     Bb5        F5 Riff 7
Hay mucha exitación

   Bb5     C5
 y 19 para ir, rock' n' roll.


  Solo
e|----------------------------------1-1-------
B|----------------------------------1-1-3-1---
G|-3b-1b--------------1b-----3b-1-------3-1b--
D|-------3---1---1-3-----3--------------------
A|-------------3------------------------------
E|--------------------------------------------

e|-6-6---------6-6---------------------------
B|-6-6--8-6----6-6--8-6-------4--3-1---------
G|------8-6b--------8-6b---s5----3-1b----3b--
D|------------------------------------3------
A|-------------------------------------------
E|-------------------------------------------

e|-------------------------------------------------------------
B|-------------------------------------------------------------
G|-----8-----10-----8-----10----8-------8----10----8----10-----
D|-s10----10-----10----10----10------10---10----10---10--------
A|-------------------------------------------------------------
E|-------------------------------------------------------------

e|-------------------------------------------------------------
B|---3-1-------------------------------------------------------
G|---3-1b--------8----10----8----10----8------8----10----------
D|-3---------s10---10----10---10----10-----10---10-----10------
A|-------------------------------------------------------------
E|-------------------------------------------------------------

e|-----------------
B|-4--3--1--1------
G|-5--3--1--1b-----
D|--------------3-- X3
A|-----------------
E|-----------------

  en la tercera vez que hace esto otra guitarra hace:
e|-------------------------------------------------------------
B|-------------------------------------------------------------
G|-------10-12-12ba-p10----10v---------------------------------
D|-10h12----------------12-------------------------------------
A|-------------------------------------------------------------
E|-------------------------------------------------------------


Parece que esta noche yo no veo bien,
solo necesito algo para entrar.
Yo si no te aliento no voy a seguir,
"Porque el sentimiento a mi me trajo acá"
Y los pibes siempre quieren más,
por sus caras parece que curtieron.
Son rock' n' roll del bajo sur
y no vayan a dejarla pasar, NO!

  Final
e|-----------------------
B|-5-5---6-6-6-6---------
G|-5-5---5-5-5-5--varias-
D|-5-5---5-5-5-5--veces--
A|-3-3---3-3-3-3---------
E|-----------------------
Suggest correction
Creating personal tab
Creating personal tab
You can edit any tab online and save it as your Personal.

You can edit, replace or remove any tab part or add personal notes – all changes will be seen only by you.

Personal tabs can be accessed anytime from any device, even offline.
Learn more »
Give kudos to tab author, rate the tab!
1 2 3 4 5
comments
print report bad tab
guest
Wanna post a correction for this tab? Suggest correction