Oops, an error
Loading. Please wait.

Cuanto Más Debo Llorar tab

13 views 1 this week
no commentswrite comment
1 2 3 4 5
3 more votes to show rating
add to favorites
×
Save as Personal and add changes to this tab that will be seen only by you. Learn more ›
×
You can save this tab as Personal to edit and correct it or add notes. All changes will be seen only by you. Learn more »
launch autoscroll
font size
0
reset
how to read this tab
guitar tuner
edit
Autoscroll
slow
fast
+/-
esc
set tempo
stop
Esta cancion es facil de tocar pero se necesitan 3 guitarras:
___________________________

()= no varia la cansion si las notas entre parentesis no se tocan
 b= blend
 ~= Vibrato
 /= slide
PM..= muteado
___________________________

(intro de bateria)

Guitarra 1:(Electrica)
|--16----------16------------------16-------16-----------------------|
|----17----------17---------17-------17---17--17-(17)-~---17---------|
|------16-(16)~----16-(16)-~--16----------------------------16---9~~-|
|--------------------------------------------------------------------|
|--------------------------------------------------------------------|
|--------------------------------------------------------------------|

Guitarra 2:(Electrica)-marcado
|---------|-------------------|----------------|
|---------|-------------------|----------------|
|-5--(5)--|-------------------|----------------|
|-5--(5)--|-9--7--9--7--9--11-|-7--9--7--9--11-|
|-7--(7)--|-9--7--9--7--9--11-|-7--9--7--9--11-|
|---------|-7--5--7--5--7--9--|-5--7--5--7--9--|

Guitarra 3:(Acustica)-rasgeado
  E  D  E  D  E  D  E  F#
|--------------------------|
|-7--5--7--5--7--5--7--9---|
|-9--7--9--7--9--7--9--11--| <--- x2
|-9--7--9--7--9--7--9--11--|
|-7--5--7--5--7--5--7--9---|
|-7--5--7--5--7--5--7--9---|

___________________________________________

Guitarra 2:
|---------------------------|
|---------------------------|
|---------------------------| <--- x2
|--66-66-77-77--99-99-99-99-|
|--66-66-77-77--99-99-99-99-|
|--44-44-55-55--77-77-77-77-|
PM.........................
____________________________________________

Guitarra 1:
|---------------------------------------|
|---------------------------------------|
|---------------------------------------|
|-5-7-5-7-5-4-2~~-4-1--4-2--41--2-4-5~~-|
|---------------------------------------|
|---------------------------------------|

Guitarra 2:
|---------------------------|
|---------------------------|
|---------------------------| <--- x2
|--66-66-77-77--99-99-99-99-|
|--66-66-77-77--99-99-99-99-|
|--44-44-55-55--77-77-77-77-|

___________________________________________________________
Las notas entre parentesis son acusticas y las otras kintas
___________________________________________________________

                      B5
Solo pensando en que hacer
                          B5 A5
Tan solo kiero ganarme tu querer
                  A5 B5
Trato llenarme de valor
                B5 A5
Solo declara mi amoor
A5(E)        (D)     G5(E) (D)
Dime cuanto mas debo lloraaaar
A5(E)          (D)      G5(E) (D)
para quitarme todo este doloooor
A5(E)        (D)     G5(E) (D)
Dime cuanto mas debo esperaaaar
A5(E)          (D)           G5(E) (D)
Tan solo kiero un poco de tu amooor wooo
___________________________________________________________
Guitarra 2:-rasgeado
|-----------------|
|-----------------|
|-7-----7---------|
|-7--7--7--7-9----|
|-5--7--5--7-9----|
|----5-----5-7----|

Guitarra 3:-rasgeado
|-------------|
|-7--5--7--5--|
|-9--7--9--7--|
|-9--7--9--7--|
|-7--5--7--5--|
|-7--5--7--5--|
__________________________________________________________

                    B5
Solo yo no sere el mismo
                             B5 A5
Tan solo kiero recuperar mi sentido
           A5 B5
(ven ami)yo kiero estar contigo
           B5 A5
(Ven ami)te kiero aki conmigo
 B5                     A5
porque no puedo estar contigo
 A5                            B5
porque no podemos ser mas que amigos
 B5                        A5
deja que el olvido sea un castigo
 A5
ya no se que hacer contigo
A5(E)        (D)     G5(E) (D)
Dime cuanto mas debo lloraaaar
A5(E)          (D)      G5(E) (D)
para quitarme todo este doloooor
A5(E)        (D)     G5(E) (D)
Dime cuanto mas debo esperaaaar
A5(E)          (D)           G5(E) (D)
Tan solo kiero un poco de tu amooor wooo
_________________________________________________________

Guitarra 3:-rasgeado
|----------|
|----7-----|
|----9-----|
|----9-----|
|----7-----|
|----7-----|
_________________________________________________________

Guitarra 2:

|------------------------------------------------------------|
|------------------------------------------------------------|
|------------------------------------------------------------|
|--7-7777777777--5-5555555555-8-8888888888-9-9999999999------|
|--7-7777777777--5-5555555555-8-8888888888-9-9999999999------|
|--5-5555555555--3-3333333333-6-6666666666-7-7777777777------|
PM   ..........    ..........   ..........   ..........

_________________________________________________________

SOLO:

Guitarra 3:

|---------------------------------------------|
|---------------------------------------------|
|-12-9-10-12--9-10-12--9-10-12--9-10-12--9-12-|
|---------------------------------------------|
|---------------------------------------------|
|---------------------------------------------|

|---------------------------------------------|
|---------------------------------------------|
|-10-7-8-10--7-8-10--7-8-10--7-8-10--7-10-----|
|---------------------------------------------|
|---------------------------------------------|
|---------------------------------------------|

|-----------------------------------|
|-----------------------------------|
|-9-6-7-9--6-7-9--6-7-9--6-7-9--6-9-|
|-----------------------------------|
|-----------------------------------|
|-----------------------------------|

|-----------------------------------------|
|-----------------------------------------|
|-11-8-9-11--8-9-11--8-9-11--8-9-11--8-11-|
|-----------------------------------------|
|-----------------------------------------|
|-----------------------------------------|

Guitarra 1:

|----------------------------------------------|
|----------------------------------------------|
|-6b~--8b~--10b~--11b~--13b~--14b~--15b~--17b~-|
|----------------------------------------------|
|----------------------------------------------|
|----------------------------------------------|


Guitarra 2:

|------------------------------------------------------------|
|------------------------------------------------------------|
|------------------------------------------------------------|
|--7-7777777777--5-5555555555-8-8888888888-9-9999999999------|
|--7-7777777777--5-5555555555-8-8888888888-9-9999999999------|
|--5-5555555555--3-3333333333-6-6666666666-7-7777777777------|
PM   ..........    ..........   ..........   ..........

_________________________________________________________


A5(E)        (D)     G5(E) (D)
Dime cuanto mas debo lloraaaar
A5(E)          (D)      G5(E) (D)
para quitarme todo este doloooor
A5(E)        (D)     G5(E) (D)
Dime cuanto mas debo esperaaaar
A5(E)          (D)           G5(E) (D)
Tan solo kiero un poco de tu amooor wooo
A5(E)        (D)     G5(E) (D)
Dime cuanto mas debo lloraaaar             -|
A5(E)          (D)      G5(E) (D)           |Esta parte tiene otra
para quitarme todo este doloooor            |letra de fondo pero
A5(E)        (D)     G5(E) (D)              |no LA he podido sacar
Dime cuanto mas debo esperaaaar             |pero los acordes
A5(E)          (D)           G5(E) (D)      |estan ahi
Tan solo kiero un poco de tu amooor wooo   -|

___________________________________________________________

Guitarra 3:-rasgeado
|--------------------------|
|-7--6--9----7--6--9-------|
|-9--8--11---9--8--11------|
|-9--8--11---9--8--11------|
|-7--6--9----7--6--9-------|
|-7--6--9----7--6--9-------|

|--------------------------------------|
|--------------------------------------|
|-9-9--8-8--7-7--9--9-9--9-9-9-9-------|
|--9----9----8--7--6------7---6--9-9---|
|--------------------9------------9--7-|
|--------------------------------------|
____________________________________________________________

Guitarra 2:
|---------------------------|
|---------------------------|
|---------------------------| <--- x2
|--66-66-77-77--99-99-99-99-|
|--66-66-77-77--99-99-99-99-|
|--44-44-55-55--77-77-77-77-|
PM.........................
___________________________________________________________

Guitarra 1:
|---------------------------------------|
|---------------------------------------|
|---------------------------------------|
|-5/7-5/7-5-4-2~~-4/1--4/2--4/6~/4~/2~~-|
|---------------------------------------|
|---------------------------------------|

Guitarra 2:
|---------------------------|
|---------------------------|
|---------------------------| <--- x2
|--66-66-77-77--99-99-99-99-|
|--66-66-77-77--99-99-99-99-|
|--44-44-55-55--77-77-77-77-|

            
            
Suggest correction
Creating personal tab
Creating personal tab
You can edit any tab online and save it as your Personal.

You can edit, replace or remove any tab part or add personal notes – all changes will be seen only by you.

Personal tabs can be accessed anytime from any device, even offline.
Learn more »
Give kudos to tab author, rate the tab!
1 2 3 4 5
comments
print report bad tab
guest
Wanna post a correction for this tab? Suggest correction