Oops, an error
Loading. Please wait.

Perdóname chords

19 views 1 this week
no commentswrite comment
1 2 3 4 5
3 more votes to show rating
add to favorites
×
Save as Personal and add changes to this tab that will be seen only by you. Learn more ›
×
You can save this tab as Personal to edit and correct it or add notes. All changes will be seen only by you. Learn more »
launch autoscroll
font size
0
reset
transpose
0
reset
simplify chords
display chords
guitar tuner
edit
Autoscroll
slow
fast
+/-
esc
set tempo
stop
Strumming
There is no strumming pattern for this song yet. and get +5 IQ
Muy chevere canción...


Intro:
|----------------------------------------------------------------------------------------|
|----------------------------------------------------------------------------------------|
|----------------------------------------------------------------------------------------|
|----2---3---2---3---2----------------------------2---2---3---2---2---2---2---3---2---2--|
|--3---3---3---3---3-----2---3---2---3---2----3------------------------------------------|
|----------------------3---3---3---3---3----1---1---1---1---1---1---1---1---1---1---1----|

|----------------------------------------------------------------------------------------|
|----------------------------------------------------------------------------------------|
|------------0---------------------------------------------------------------------------|
|----2---3-------3---2------------------------2---3---2---0-----2---3---0----------------|
|--3---3---3---3---3-----2---3---5---3---2--------------------3--------------------------|
|----------------------3---3---3---3---3----1---1---1---1---1-----1---1------------------|


C5             G5          A5                   F5
Hoy me siento solo, confundido y sin ganas de vivir. 
C5                  G5        A5        F5 G5       
Como quisiera que estés a mi lado otra vez.


C5 G5 A5 F5 C5 G5 A5 F5 G5


C5    G5                 A5    F5
Cada vez creo que estoy loco, loco por tí!
C5            G5                   A5                 F5 G5                
Y veo que si no es verdad, no me importa porque cambiará.


C5         G5      A5            F5
No fue mi culpa y menos mi intención.
C5       G5        A5              F5
Hacerte daño... creo que fuí un huevón.
C5      G5   A5              F5      C5 G5 A5
Perdóname!... Porque ya no se que haceeeeeeeer...
F5           C5 G5 A5 F5
No se que haceeeeeeeer...


C5             G5          A5                   F5
Hoy me siento solo, confundido y sin ganas de vivir. 
C5                  G5        A5        F5 G5       
Como quisiera que estés a mi lado otra vez.


C5         G5      A5            F5
No fue mi culpa y menos mi intención.
C5       G5        A5              F5
Hacerte daño... creo que fuí un huevón.
C5      G5   A5              F5      C5 G5 A5
Perdóname!... Porque ya no se que haceeeeeeeer...
F5           C5 G5 A5 F5
No se que haceeeeeeeer...


|-----3--------------3--------------3-------------------------|
|--------1--1--3--1-----1--1--3--1-----1--1--3--1--5--3--1----|
|-------------------------------------------------------------|
|-------------------------------------------------------------|(x2)
|-------------------------------------------------------------|
|-------------------------------------------------------------|
    Hay algo dentro de mi, que me mata, no me deja respirar
   No, no se de que será pero estoy seguro que me va a matar.


Solo:
|------------------------------------------------|
|------------------------------------------------|
|--5-5-5-7/9-7\5--7-7-5-7/9-9-10-9-10-9-7-9-7-9--|
|------------------------------------------------|
|------------------------------------------------|
|------------------------------------------------|

|------------------------------------------------|
|------------------------------------------------|
|--5-5-5-7/9-7\5--7-7-5-7/9-9-10-12-14-16-17-----|
|------------------------------------------------|
|------------------------------------------------|
|------------------------------------------------|


C5         G5      A5            F5
No fue mi culpa y menos mi intención.
C5       G5        A5              F5
Hacerte daño... creo que fuí un huevón.
C5      G5   A5              F5      C5 G5 A5
Perdóname!... Porque ya no se que haceeeeeeeer...
F5           C5 G5 A5
No se que haceeeeeeeer...
*F5 E5 D5 C5
Per-dó-na-me!...


-------------------------------------------------
- :
     |-------------|
     |-------------|
     |-------------|
     |--3-3-2-2----|
     |----------3--|
     |-------------|

- \/: Deslizar el dedo hasta la siguiente nota.

- *F5:
     |------|
     |------|
     |--10--|
     |--10--|
     |--8---|
     |------|
-------------------------------------------------

Esta canción depende mucho de los tiempos, efectos y rasgueos...
Practíquenla ;)...

Saludos a toda la People del 'Parque el Retiro',
'Manuel Scorza' y 'Sector 9'...

--> ADRI!!! TQM!!! 

            
            
Suggest correction
Creating personal tab
Creating personal tab
You can edit any tab online and save it as your Personal.

You can edit, replace or remove any tab part or add personal notes – all changes will be seen only by you.

Personal tabs can be accessed anytime from any device, even offline.
Learn more »
Give kudos to tab author, rate the tab!
1 2 3 4 5
comments
print report bad tab
guest
Wanna post a correction for this tab? Suggest correction