Oops, an error
Loading. Please wait.

La Televisión tab

10 views 1 this week
no commentswrite comment
1 2 3 4 5
3 more votes to show rating
add to favorites
×
Save as Personal and add changes to this tab that will be seen only by you. Learn more ›
×
You can save this tab as Personal to edit and correct it or add notes. All changes will be seen only by you. Learn more »
launch autoscroll
font size
0
reset
how to read this tab
guitar tuner
edit
Autoscroll
slow
fast
+/-
esc
set tempo
stop
SIm                LA 
Cuando un día el te creó  
MI   FAM#     DOm
y lo penso y lo admiró  
E|--------------------------|
B|--------------------------|
G|--------------------------|
D|-----9---7---5---4---2--2-|
A|---9---7---5---4---2----2-|
E|-7---5---3---2---0------0-| 
  al   te- le- vi- sor

Intro:

Base: Sol5-Do5-Sol5-Re5-Do5-Sol5

E|------------------------------------------|-8--7--7--5--7--5--7--5--7--5--7--5--7--5-|
B|-8--7--7--5--7--5--7--5--7--5--7--5--7--5-|------------------------------------------|
G|------------------------------------------|------------------------------------------|
D|------------------------------------------|------------------------------------------|
A|------------------------------------------|------------------------------------------|
E|------------------------------------------|------------------------------------------|

E|------------------------------------------|-----------------------|
B|-8--7--7--5--7--5--7--5--7--5--7--5--7--5-|-----------------------|
G|------------------------------------------|-7--5--5--4--5--4--5-4-|
D|------------------------------------------|-----------------------|
A|------------------------------------------|-----------------------|
E|------------------------------------------|-----------------------|

PM:----------------------------:
E|------------------------|----|
B|------------------------|----|
G|------------------------|----|
D|-7--5--5--4--5--4--5--4-|-5v-|
A|------------------------|----|
E|------------------------|----|

SOL5 
Pasan muchos programas
DO5 
de protesta y de humor
SOL5 
También el show amarillo
RE5       DO5        SOL5
que atrae a los chismosos 

MI5 
|-----------------|-----------------|-----------------|-----------------|
|-----------------|-----------------|-----------------|-----------------|
|-----------------|-----------------|-----------------|-----------------|
|------7--5--4----|------7--5--4----|------7--5--4----|------7--5--4----|
|-2------------7--|-2------------7--|-2------------7--|-2------------7--|
|-0---------------|-0---------------|-0---------------|-0---------------|
 Tele, te queremos Tele, te amamos   Tele, te adoramos Tele, te admiramos

E|------------------------------------------|-8--7--7--5--7--5--7--5--7--5--7--5--7--5-|
B|-8--7--7--5--7--5--7--5--7--5--7--5--7--5-|------------------------------------------|
G|------------------------------------------|------------------------------------------|
D|------------------------------------------|------------------------------------------|
A|------------------------------------------|------------------------------------------|
E|------------------------------------------|------------------------------------------|

E|------------------------------------------|-----------------------|
B|-8--7--7--5--7--5--7--5--7--5--7--5--7--5-|-----------------------|
G|------------------------------------------|-7--5--5--4--5--4--5-4-|
D|------------------------------------------|-----------------------|
A|------------------------------------------|-----------------------|
E|------------------------------------------|-----------------------|

PM:----------------------------:
E|------------------------|----|
B|------------------------|----|
G|------------------------|----|
D|-7--5--5--4--5--4--5--4-|-5v-|
A|------------------------|----|
E|------------------------|----|

SOL5 
Pasan ellos el zaping, 
DO5 
cambiando todo el tiempo
SOL5 
y no puedo aguantar
RE5   DO5             SOL5
a los amarillentos chusmas 

MI5 
|-----------------|-----------------|-----------------|-----------------|
|-----------------|-----------------|-----------------|-----------------|
|-----------------|-----------------|-----------------|-----------------|
|------7--5--4----|------7--5--4----|------7--5--4----|------7--5--4----|
|-2------------7--|-2------------7--|-2------------7--|-2------------7--|
|-0---------------|-0---------------|-0---------------|-0---------------|
 Tele, te queremos Tele, te amamos   Tele, te adoramos Tele, te admiramos

Solo:

Base: (Sol5-Do5-Sol5-Re5-Do5-Sol5)

 SOL5                               
E|-----------------------------------|----------------------|
B|-----------------------------------|----------------------|
G|----------------------------9------|----------------------|
D|-------------------7--9--10---10-9-|-7--------------------|
A|----------7--9--10-----------------|---10--9--7-------7---|
E|-7--8--10--------------------------|------------10--8---7-|

 DO5                              SOL5                     RE5     DO5
E|------------------|-------------|--------------|---------|-------|----------|
B|-x--12b--12b--12b-|-12v--10-----|-10-----------|---------|-----8-|-10b--b10-|
G|-x----------------|---------11--|----11v--9----|----9----|-------|----------|
D|-x----------------|-------------|-----------10-|-9v---10-|-9v----|----------|
A|------------------|-------------|--------------|---------|-------|----------|
E|------------------|-------------|--------------|---------|-------|----------|

SOL5
E|----------|--14b-|
B|-8b--1/12-|------|
G|----------|------|
D|----------|------|
A|----------|------|
E|----------|------|

MI5 
|-----------------|-----------------|-----------------|-----------------|
|-----------------|-----------------|-----------------|-----------------|
|-----------------|-----------------|-----------------|-----------------|
|------7--5--4----|------7--5--4----|------7--5--4----|------7--5--4----|
|-2------------7--|-2------------7--|-2------------7--|-2------------7--|
|-0---------------|-0---------------|-0---------------|-0---------------|
 Tele, te queremos Tele, te amamos   Tele, te adoramos Tele, te admiramos

SOL5 
Mucha guita corre
DO5 
con este mercado
SOL5 
pero corre mas plata
RE5   DO5      SOL5
con algunas coimas.

MI5 
|-----------------|-----------------|-----------------|-----------------|
|-----------------|-----------------|-----------------|-----------------|
|-----------------|-----------------|-----------------|-----------------|
|------7--5--4----|------7--5--4----|------7--5--4----|------7--5--4----|
|-2------------7--|-2------------7--|-2------------7--|-2------------7--|
|-0---------------|-0---------------|-0---------------|-0---------------|
 Tele, te queremos Tele, te amamos   Tele, te adoramos Tele, te admiramos

E|------------------------------------------|-8--7--7--5--7--5--7--5--7--5--7--5--7--5-|
B|-8--7--7--5--7--5--7--5--7--5--7--5--7--5-|------------------------------------------|
G|------------------------------------------|------------------------------------------|
D|------------------------------------------|------------------------------------------|
A|------------------------------------------|------------------------------------------|
E|------------------------------------------|------------------------------------------|

E|------------------------------------------|-----------------------|
B|-8--7--7--5--7--5--7--5--7--5--7--5--7--5-|-----------------------|
G|------------------------------------------|-7--5--5--4--5--4--5-4-|
D|------------------------------------------|-----------------------|
A|------------------------------------------|-----------------------|
E|------------------------------------------|-----------------------|

PM:----------------------------:
E|------------------------|----|
B|------------------------|----|
G|------------------------|----|
D|-7--5--5--4--5--4--5--4-|-5v-|
A|------------------------|----|
E|------------------------|----|

SOL5 
Muchos te critican
DO5 
por lo que hacés
SOL5 
pero creo que ellos
RE5      DO5       SOL5
envidian tu exito.

MI5 
|-----------------|-----------------|-----------------|-----------------|
|-----------------|-----------------|-----------------|-----------------|
|-----------------|-----------------|-----------------|-----------------|
|------7--5--4----|------7--5--4----|------7--5--4----|------7--5--4----|
|-2------------7--|-2------------7--|-2------------7--|-2------------7--|
|-0---------------|-0---------------|-0---------------|-0---------------|
 Tele, te queremos Tele, te amamos   Tele, te adoramos Tele, te admiramos

E|------------------------------------------|-8--7--7--5--7--5--7--5--7--5--7--5--7--5-|
B|-8--7--7--5--7--5--7--5--7--5--7--5--7--5-|------------------------------------------|
G|------------------------------------------|------------------------------------------|
D|------------------------------------------|------------------------------------------|
A|------------------------------------------|------------------------------------------|
E|------------------------------------------|------------------------------------------|

E|------------------------------------------|-----------------------|
B|-8--7--7--5--7--5--7--5--7--5--7--5--7--5-|-----------------------|
G|------------------------------------------|-7--5--5--4--5--4--5-4-|
D|------------------------------------------|-----------------------|
A|------------------------------------------|-----------------------|
E|------------------------------------------|-----------------------|

PM:----------------------------:
E|------------------------|----|
B|------------------------|----|
G|------------------------|----|
D|-7--5--5--4--5--4--5--4-|-5v-|
A|------------------------|----|
E|------------------------|----|

SOL5 
Cuando yo tengo el control
DO5 
sobre el control remoto
SOL5 
paso todos los canales
RE5           DO5        SOL5
buscando algo que valga la pena. 

MI5 
|-----------------|-----------------|-----------------|-----------------|
|-----------------|-----------------|-----------------|-----------------|
|-----------------|-----------------|-----------------|-----------------|
|------7--5--4----|------7--5--4----|------7--5--4----|------7--5--4----|
|-2------------7--|-2------------7--|-2------------7--|-2------------7--|
|-0---------------|-0---------------|-0---------------|-0---------------|
 Tele, te queremos Tele, te amamos   Tele, te adoramos Tele, te admiramos

SIm                LA 
|-----------------------|
|-----------------------|
|-7--5------------------|
|------4--4--4--4--5--7-|
|-----------------------|
|-----------------------|
 Pero  esto  ya  terminó

MI     FAM#     DOm
|---------------7--8-|
|---------------7--8-|
|-4--5--7--7--7------|
|--------------------|
|--------------------|
|--------------------|
 y la prensa ya se murió

|-19v--17v--15v------------|
|----------------17v-------|
|----------------------16v-|
|--------------------------|
|--------------------------|
|--------------------------|
  por  tu     exitó.

Leyenda:

/: Arrastre.
b: Subir nota un tono.
v: vibrato.
PM: Palm mute.

Acordes:

Sim      x24432
LaM      x02220
MiM      022100
FaM#      244322
Dom      x35543
Sol5      355xxx
Do5      x355xx
Re5      x577xx
Mi5      022xxx

            
            
Suggest correction
Creating personal tab
Creating personal tab
You can edit any tab online and save it as your Personal.

You can edit, replace or remove any tab part or add personal notes – all changes will be seen only by you.

Personal tabs can be accessed anytime from any device, even offline.
Learn more »
Give kudos to tab author, rate the tab!
1 2 3 4 5
comments
print report bad tab
guest
Wanna post a correction for this tab? Suggest correction