Oops, an error
Loading. Please wait.

No Rompas Mi Corazón chords

version 2
version 2

Whole song

641 views 15 this week
no commentswrite comment
1 2 3 4 5
3 more votes to show rating
add to favorites
×
Save as Personal and add changes to this tab that will be seen only by you. Learn more ›
×
You can save this tab as Personal to edit and correct it or add notes. All changes will be seen only by you. Learn more »
launch autoscroll
font size
0
reset
transpose
0
reset
display chords
guitar tuner
edit
Autoscroll
slow
fast
+/-
esc
set tempo
stop
Strumming
There is no strumming pattern for this song yet. and get +5 IQ
Intro  Riff 1

Riff 1
   Bb
A--1---

CORO

No rompas más, mi pobre corazón,
estás pegando justo entiéndelo,
si quiebras poco más, mi pobre corazón,
me harás mil pedazos quiérelo.

Inter   Riff 2

 Bb
No soy lo mejor, ni tú única opción,
                              F
no tengo más partido que mi amor,
dime algo baby bien, ya no me hagas perder,
                              Bb
serás siempre mi nena como el Sol.

Te gusta vivir bien, te juro que tal vez,
yo pueda darte algo de valor,
obtengas con amor, y con mucho calor,
lo que nunca llegaste a tener.

CORO

Inter  Riff 3

Dile a tu mama, que no abra la ventana,
cuando te visito por las noches,
que tú tienes que ver, si te puedo convencer
para que tú me quieras como soy.

He andado por las ramas, botijas y por nada,
no tengo más motivo que tú amor,
dime algo baby bien, ya no me hagas perder,
serás siempre mi nena como el Sol.

CORO

Inter  Riff 3

CORO (2)
Riff 2
    Bb
e---------------------------------------------------------
B---------------------------------------------------------
G--2-3--3--------3--3---5/7-----3--3------3-5-7-7-7-7-----
D--------5-3--3h5-----5------3h5----5-3-5-----8-8-8-8-----
A---------------------------------------------------------
E---------------------------------------------------------


Riff 3
  Bb                                    F
e----------------------------------------------------------------
B----------------------------------------------------------------
G----------------------------------------------------------------
D---------------------------------------3--3--------3--3---------
A-1--1---------1--1--------1--1----1-3-5----5-3--3h5----5-3------
E-----3-1---1h3----3-1--1h3----3-1-------------------------------
                               Bb
e-----------------------------------------
B-----------------------------------------
G-----------------------------------------
D------3--3--------3--3---------0-3-5-6---
A---3h5----5-3--3h5----5-3-----1----------
E---------------------------1-3-----------

            
            
Suggest correction
Creating personal tab
Creating personal tab
You can edit any tab online and save it as your Personal.

You can edit, replace or remove any tab part or add personal notes – all changes will be seen only by you.

Personal tabs can be accessed anytime from any device, even offline.
Learn more »
Give kudos to tab author, rate the tab!
1 2 3 4 5
comments
print report bad tab
guest
Wanna post a correction for this tab? Suggest correction