Oops, an error
Loading. Please wait.

Mírame chords

41 views 1 this week
no commentswrite comment
1 2 3 4 5
3 more votes to show rating
add to favorites
×
Save as Personal and add changes to this tab that will be seen only by you. Learn more ›
×
You can save this tab as Personal to edit and correct it or add notes. All changes will be seen only by you. Learn more »
launch autoscroll
font size
0
reset
transpose
0
reset
display chords
guitar tuner
edit
Autoscroll
slow
fast
+/-
esc
set tempo
stop
Strumming
There is no strumming pattern for this song yet. and get +5 IQ
Intro:
E|---------------------|
B|---------------------|
G|---------------------| X2
D|---------------------|
A|---------------------|
E|-8-11-10-10-11-------|

Cm      G#m
Mírame, es todo lo que hay
Cm          G#m
Ahuyentando tu serpiente vaginal
Cm        G#m
Tan real, un espacio intelectual
Cm
Es muy tarde
G#m
Se relame el animal

Fm     G#m
  Ah, amanece en la ciudad
Fm       G#m
  Ah, me lastima tu enfermedad

(esos son los acordes del corte, pero)
se tocan varias veces cada uno)
E|---------------------|-------------------|
B|---------------------|-------------------|
G|---------------------|-------------------|
D|-10--12--13-14-15----|-------------------|
A|-10--12--13-14-15----|-------------------|
E|-8---10--10-11-13----|-------------------|


Cm      G#m
Mírame, es todo lo que hay
Cm          G#m
 En tu cuello mi mordida visceral
Cm           G#m
Atravieso tu coagulo mortal
Cm            G#m
Y se estrecha en tu llanto genital


Fm     G#m
  Ah, amanece en la ciudad
Fm     G#m
  Ah, es una señal
Fm     G#m
  Ah, amanece en la ciudad
Fm     G#m
  Ah, no recuerdo donde va

E|---------------------|-----------------|
B|---------------------|-----------------|
G|---------------------|-----------------|
D|-10--12--13-14-15----|-10--12--13-14-3-|
A|-10--12--13-14-15----|-10--12--13-14-3-|
E|-8---10--10-11-13----|-8---10--10-11-1-|

(esos son los acordes del corte,pero se tocan varias veces cada uno)

            
            
Suggest correction
Creating personal tab
Creating personal tab
You can edit any tab online and save it as your Personal.

You can edit, replace or remove any tab part or add personal notes – all changes will be seen only by you.

Personal tabs can be accessed anytime from any device, even offline.
Learn more »
Give kudos to tab author, rate the tab!
1 2 3 4 5
comments
print report bad tab
guest
Wanna post a correction for this tab? Suggest correction